  0
SECTION
  2
ENTITIES
  0
LINE
  8
F
 10
17.532
 11
21.25
 20
6.0
 21
6.0
  0
LINE
  8
F
 10
17.532
 11
-3.688
 20
39.861
 21
39.861
  0
LINE
  8
F
 10
17.532
 11
-3.688
 20
48.106
 21
48.106
  0
LINE
  8
F
 10
17.532
 11
-3.688
 20
56.35
 21
56.35
  0
LINE
  8
F
 10
17.532
 11
-3.688
 20
31.617
 21
31.617
  0
LINE
  8
F
 10
17.532
 11
-3.688
 20
23.372
 21
23.372
  0
LINE
  8
F
 10
14.75
 11
14.75
 20
39.861
 21
64.472
  0
LINE
  8
F
 10
14.75
 11
17.532
 20
64.472
 21
64.472
  0
LINE
  8
F
 10
17.532
 11
21.25
 20
64.472
 21
64.472
  0
LINE
  8
F
 10
21.0
 11
0.0
 20
0.25
 21
0.25
  0
LINE
  8
F
 10
21.25
 11
17.532
 20
6.0
 21
6.0
  0
LINE
  8
F
 10
17.532
 11
17.532
 20
6.0
 21
64.472
  0
LINE
  8
F
 10
21.0
 11
21.0
 20
0.25
 21
6.0
  0
LINE
  8
F
 10
0.0
 11
0.0
 20
0.25
 21
5.875
  0
LINE
  8
F
 10
21.25
 11
-3.688
 20
65.5
 21
65.5
  0
LINE
  8
F
 10
21.25
 11
-4.375
 20
64.472
 21
64.472
  0
LINE
  8
F
 10
17.532
 11
17.532
 20
64.472
 21
65.5
  0
LINE
  8
F
 10
21.25
 11
21.25
 20
64.472
 21
6.0
  0
LINE
  8
F
 10
21.25
 11
21.25
 20
64.472
 21
65.5
  0
LINE
  8
F
 10
0.0
 11
0.5
 20
0.25
 21
0.25
  0
LINE
  8
F
 10
0.5
 11
0.5
 20
0.25
 21
0.0
  0
LINE
  8
F
 10
0.5
 11
0.0
 20
0.0
 21
0.0
  0
LINE
  8
F
 10
0.0
 11
0.0
 20
0.0
 21
0.25
  0
LINE
  8
F
 10
20.5
 11
21.0
 20
0.25
 21
0.25
  0
LINE
  8
F
 10
21.0
 11
21.0
 20
0.25
 21
0.0
  0
LINE
  8
F
 10
21.0
 11
20.5
 20
0.0
 21
0.0
  0
LINE
  8
F
 10
20.5
 11
20.5
 20
0.0
 21
0.25
  0
LINE
  8
F
 10
17.532
 11
-1.325
 20
5.875
 21
5.875
  0
LINE
  8
F
 10
-1.325
 11
-4.5
 20
5.875
 21
18.375
  0
LINE
  8
F
 10
-4.5
 11
17.532
 20
18.375
 21
18.375
  0
LINE
  8
F
 10
17.532
 11
17.532
 20
18.375
 21
5.875
  0
ARC
  8
F
 10
-345.285
 20
75.022
 40
361.747
 50
350.991
 51
354.422
  0
LINE
  8
F
 10
14.75
 11
14.75
 20
64.847
 21
68.16
  0
LINE
  8
F
 10
21.25
 11
21.25
 20
65.875
 21
68.16
  0
LINE
  8
F
 10
14.75
 11
22.315
 20
67.785
 21
67.785
  0
LINE
  8
F
 10
16.0
 11
14.75
 20
67.576
 21
67.785
  0
LINE
  8
F
 10
14.75
 11
16.0
 20
67.785
 21
67.993
  0
LINE
  8
F
 10
16.0
 11
16.0
 20
67.993
 21
67.576
  0
LINE
  8
F
 10
20.0
 11
21.25
 20
67.993
 21
67.785
  0
LINE
  8
F
 10
21.25
 11
20.0
 20
67.785
 21
67.576
  0
LINE
  8
F
 10
20.0
 11
20.0
 20
67.576
 21
67.993
  0
LINE
  8
F
 10
-4.5
 11
-4.5
 20
18.0
 21
-11.732
  0
LINE
  8
F
 10
21.25
 11
21.25
 20
5.625
 21
-11.732
  0
LINE
  8
F
 10
-4.5
 11
5.05
 20
-11.357
 21
-11.357
  0
LINE
  8
F
 10
11.7
 11
21.25
 20
-11.357
 21
-11.357
  0
LINE
  8
F
 10
-3.25
 11
-4.5
 20
-11.565
 21
-11.357
  0
LINE
  8
F
 10
-4.5
 11
-3.25
 20
-11.357
 21
-11.148
  0
LINE
  8
F
 10
-3.25
 11
-3.25
 20
-11.148
 21
-11.565
  0
LINE
  8
F
 10
20.0
 11
21.25
 20
-11.148
 21
-11.357
  0
LINE
  8
F
 10
21.25
 11
20.0
 20
-11.357
 21
-11.565
  0
LINE
  8
F
 10
20.0
 11
20.0
 20
-11.565
 21
-11.148
  0
LINE
  8
F
 10
0.0
 11
0.0
 20
-0.125
 21
-4.815
  0
LINE
  8
F
 10
21.0
 11
21.0
 20
-0.125
 21
-4.815
  0
LINE
  8
F
 10
0.0
 11
7.336
 20
-4.44
 21
-4.44
  0
LINE
  8
F
 10
13.664
 11
21.0
 20
-4.44
 21
-4.44
  0
LINE
  8
F
 10
1.25
 11
0.0
 20
-4.649
 21
-4.44
  0
LINE
  8
F
 10
0.0
 11
1.25
 20
-4.44
 21
-4.232
  0
LINE
  8
F
 10
1.25
 11
1.25
 20
-4.232
 21
-4.649
  0
LINE
  8
F
 10
19.75
 11
21.0
 20
-4.232
 21
-4.44
  0
LINE
  8
F
 10
21.0
 11
19.75
 20
-4.44
 21
-4.649
  0
LINE
  8
F
 10
19.75
 11
19.75
 20
-4.649
 21
-4.232
  0
LINE
  8
F
 10
0.0
 11
0.354
 20
0.604
 21
0.25
  0
LINE
  8
F
 10
0.707
 11
0.0
 20
0.25
 21
0.957
  0
LINE
  8
F
 10
0.0
 11
1.061
 20
1.311
 21
0.25
  0
LINE
  8
F
 10
1.414
 11
0.0
 20
0.25
 21
1.664
  0
LINE
  8
F
 10
0.0
 11
1.768
 20
2.018
 21
0.25
  0
LINE
  8
F
 10
2.121
 11
0.0
 20
0.25
 21
2.371
  0
LINE
  8
F
 10
0.0
 11
2.475
 20
2.725
 21
0.25
  0
LINE
  8
F
 10
2.828
 11
0.0
 20
0.25
 21
3.078
  0
LINE
  8
F
 10
0.0
 11
3.182
 20
3.432
 21
0.25
  0
LINE
  8
F
 10
3.536
 11
0.0
 20
0.25
 21
3.786
  0
LINE
  8
F
 10
0.0
 11
3.889
 20
4.139
 21
0.25
  0
LINE
  8
F
 10
4.243
 11
0.0
 20
0.25
 21
4.493
  0
LINE
  8
F
 10
0.0
 11
4.596
 20
4.846
 21
0.25
  0
LINE
  8
F
 10
4.95
 11
0.0
 20
0.25
 21
5.2
  0
LINE
  8
F
 10
0.0
 11
5.303
 20
5.553
 21
0.25
  0
LINE
  8
F
 10
5.657
 11
0.032
 20
0.25
 21
5.875
  0
LINE
  8
F
 10
0.385
 11
6.01
 20
5.875
 21
0.25
  0
LINE
  8
F
 10
6.364
 11
0.739
 20
0.25
 21
5.875
  0
LINE
  8
F
 10
1.093
 11
6.718
 20
5.875
 21
0.25
  0
LINE
  8
F
 10
7.071
 11
1.446
 20
0.25
 21
5.875
  0
LINE
  8
F
 10
1.8
 11
7.425
 20
5.875
 21
0.25
  0
LINE
  8
F
 10
7.778
 11
2.153
 20
0.25
 21
5.875
  0
LINE
  8
F
 10
2.507
 11
8.132
 20
5.875
 21
0.25
  0
LINE
  8
F
 10
8.485
 11
2.86
 20
0.25
 21
5.875
  0
LINE
  8
F
 10
3.214
 11
8.839
 20
5.875
 21
0.25
  0
LINE
  8
F
 10
9.192
 11
3.567
 20
0.25
 21
5.875
  0
LINE
  8
F
 10
3.921
 11
9.546
 20
5.875
 21
0.25
  0
LINE
  8
F
 10
9.899
 11
4.275
 20
0.25
 21
5.875
  0
LINE
  8
F
 10
4.628
 11
10.253
 20
5.875
 21
0.25
  0
LINE
  8
F
 10
10.607
 11
4.982
 20
0.25
 21
5.875
  0
LINE
  8
F
 10
5.335
 11
10.96
 20
5.875
 21
0.25
  0
LINE
  8
F
 10
11.314
 11
5.689
 20
0.25
 21
5.875
  0
LINE
  8
F
 10
6.042
 11
11.667
 20
5.875
 21
0.25
  0
LINE
  8
F
 10
12.021
 11
6.396
 20
0.25
 21
5.875
  0
LINE
  8
F
 10
6.749
 11
12.374
 20
5.875
 21
0.25
  0
LINE
  8
F
 10
12.728
 11
7.103
 20
0.25
 21
5.875
  0
LINE
  8
F
 10
7.456
 11
13.081
 20
5.875
 21
0.25
  0
LINE
  8
F
 10
13.435
 11
7.81
 20
0.25
 21
5.875
  0
LINE
  8
F
 10
8.164
 11
13.789
 20
5.875
 21
0.25
  0
LINE
  8
F
 10
14.142
 11
8.517
 20
0.25
 21
5.875
  0
LINE
  8
F
 10
8.871
 11
14.496
 20
5.875
 21
0.25
  0
LINE
  8
F
 10
14.849
 11
9.224
 20
0.25
 21
5.875
  0
LINE
  8
F
 10
9.578
 11
15.203
 20
5.875
 21
0.25
  0
LINE
  8
F
 10
15.556
 11
9.931
 20
0.25
 21
5.875
  0
LINE
  8
F
 10
10.285
 11
15.91
 20
5.875
 21
0.25
  0
LINE
  8
F
 10
16.263
 11
10.638
 20
0.25
 21
5.875
  0
LINE
  8
F
 10
10.992
 11
16.617
 20
5.875
 21
0.25
  0
LINE
  8
F
 10
16.971
 11
11.346
 20
0.25
 21
5.875
  0
LINE
  8
F
 10
11.699
 11
17.324
 20
5.875
 21
0.25
  0
LINE
  8
F
 10
17.678
 11
12.053
 20
0.25
 21
5.875
  0
LINE
  8
F
 10
12.406
 11
18.031
 20
5.875
 21
0.25
  0
LINE
  8
F
 10
18.385
 11
12.76
 20
0.25
 21
5.875
  0
LINE
  8
F
 10
13.113
 11
18.738
 20
5.875
 21
0.25
  0
LINE
  8
F
 10
19.092
 11
13.467
 20
0.25
 21
5.875
  0
LINE
  8
F
 10
13.82
 11
19.445
 20
5.875
 21
0.25
  0
LINE
  8
F
 10
19.799
 11
14.174
 20
0.25
 21
5.875
  0
LINE
  8
F
 10
14.528
 11
20.153
 20
5.875
 21
0.25
  0
LINE
  8
F
 10
20.506
 11
14.881
 20
0.25
 21
5.875
  0
LINE
  8
F
 10
15.235
 11
20.86
 20
5.875
 21
0.25
  0
LINE
  8
F
 10
21.0
 11
15.588
 20
0.463
 21
5.875
  0
LINE
  8
F
 10
15.942
 11
21.0
 20
5.875
 21
0.817
  0
LINE
  8
F
 10
21.0
 11
16.295
 20
1.17
 21
5.875
  0
LINE
  8
F
 10
16.649
 11
21.0
 20
5.875
 21
1.524
  0
LINE
  8
F
 10
21.0
 11
17.002
 20
1.877
 21
5.875
  0
LINE
  8
F
 10
17.356
 11
21.0
 20
5.875
 21
2.231
  0
LINE
  8
F
 10
21.0
 11
17.585
 20
2.585
 21
6.0
  0
LINE
  8
F
 10
17.938
 11
21.0
 20
6.0
 21
2.938
  0
LINE
  8
F
 10
21.0
 11
18.292
 20
3.292
 21
6.0
  0
LINE
  8
F
 10
18.645
 11
21.0
 20
6.0
 21
3.645
  0
LINE
  8
F
 10
21.0
 11
18.999
 20
3.999
 21
6.0
  0
LINE
  8
F
 10
19.352
 11
21.0
 20
6.0
 21
4.352
  0
LINE
  8
F
 10
21.0
 11
19.706
 20
4.706
 21
6.0
  0
LINE
  8
F
 10
20.059
 11
21.0
 20
6.0
 21
5.059
  0
LINE
  8
F
 10
21.0
 11
20.413
 20
5.413
 21
6.0
  0
LINE
  8
F
 10
20.767
 11
21.0
 20
6.0
 21
5.767
  0
LINE
  8
F
 10
20.646
 11
21.0
 20
0.25
 21
0.604
  0
LINE
  8
F
 10
21.0
 11
20.293
 20
0.957
 21
0.25
  0
LINE
  8
F
 10
19.939
 11
21.0
 20
0.25
 21
1.311
  0
LINE
  8
F
 10
21.0
 11
19.586
 20
1.664
 21
0.25
  0
LINE
  8
F
 10
19.232
 11
21.0
 20
0.25
 21
2.018
  0
LINE
  8
F
 10
21.0
 11
18.879
 20
2.371
 21
0.25
  0
LINE
  8
F
 10
18.525
 11
21.0
 20
0.25
 21
2.725
  0
LINE
  8
F
 10
21.0
 11
18.172
 20
3.078
 21
0.25
  0
LINE
  8
F
 10
17.818
 11
21.0
 20
0.25
 21
3.432
  0
LINE
  8
F
 10
21.0
 11
17.464
 20
3.786
 21
0.25
  0
LINE
  8
F
 10
17.111
 11
21.0
 20
0.25
 21
4.139
  0
LINE
  8
F
 10
21.0
 11
16.757
 20
4.493
 21
0.25
  0
LINE
  8
F
 10
16.404
 11
21.0
 20
0.25
 21
4.846
  0
LINE
  8
F
 10
21.0
 11
16.05
 20
5.2
 21
0.25
  0
LINE
  8
F
 10
15.697
 11
21.0
 20
0.25
 21
5.553
  0
LINE
  8
F
 10
21.0
 11
15.343
 20
5.907
 21
0.25
  0
LINE
  8
F
 10
14.99
 11
20.739
 20
0.25
 21
6.0
  0
LINE
  8
F
 10
20.386
 11
14.636
 20
6.0
 21
0.25
  0
LINE
  8
F
 10
14.282
 11
20.032
 20
0.25
 21
6.0
  0
LINE
  8
F
 10
19.679
 11
13.929
 20
6.0
 21
0.25
  0
LINE
  8
F
 10
13.575
 11
19.325
 20
0.25
 21
6.0
  0
LINE
  8
F
 10
18.972
 11
13.222
 20
6.0
 21
0.25
  0
LINE
  8
F
 10
12.868
 11
18.618
 20
0.25
 21
6.0
  0
LINE
  8
F
 10
18.265
 11
12.515
 20
6.0
 21
0.25
  0
LINE
  8
F
 10
12.161
 11
17.911
 20
0.25
 21
6.0
  0
LINE
  8
F
 10
17.433
 11
11.808
 20
5.875
 21
0.25
  0
LINE
  8
F
 10
11.454
 11
17.079
 20
0.25
 21
5.875
  0
LINE
  8
F
 10
16.725
 11
11.101
 20
5.875
 21
0.25
  0
LINE
  8
F
 10
10.747
 11
16.372
 20
0.25
 21
5.875
  0
LINE
  8
F
 10
16.018
 11
10.393
 20
5.875
 21
0.25
  0
LINE
  8
F
 10
10.04
 11
15.665
 20
0.25
 21
5.875
  0
LINE
  8
F
 10
15.311
 11
9.686
 20
5.875
 21
0.25
  0
LINE
  8
F
 10
9.333
 11
14.958
 20
0.25
 21
5.875
  0
LINE
  8
F
 10
14.604
 11
8.979
 20
5.875
 21
0.25
  0
LINE
  8
F
 10
8.626
 11
14.251
 20
0.25
 21
5.875
  0
LINE
  8
F
 10
13.897
 11
8.272
 20
5.875
 21
0.25
  0
LINE
  8
F
 10
7.919
 11
13.544
 20
0.25
 21
5.875
  0
LINE
  8
F
 10
13.19
 11
7.565
 20
5.875
 21
0.25
  0
LINE
  8
F
 10
7.211
 11
12.836
 20
0.25
 21
5.875
  0
LINE
  8
F
 10
12.483
 11
6.858
 20
5.875
 21
0.25
  0
LINE
  8
F
 10
6.504
 11
12.129
 20
0.25
 21
5.875
  0
LINE
  8
F
 10
11.776
 11
6.151
 20
5.875
 21
0.25
  0
LINE
  8
F
 10
5.797
 11
11.422
 20
0.25
 21
5.875
  0
LINE
  8
F
 10
11.069
 11
5.444
 20
5.875
 21
0.25
  0
LINE
  8
F
 10
5.09
 11
10.715
 20
0.25
 21
5.875
  0
LINE
  8
F
 10
10.362
 11
4.737
 20
5.875
 21
0.25
  0
LINE
  8
F
 10
4.383
 11
10.008
 20
0.25
 21
5.875
  0
LINE
  8
F
 10
9.654
 11
4.029
 20
5.875
 21
0.25
  0
LINE
  8
F
 10
3.676
 11
9.301
 20
0.25
 21
5.875
  0
LINE
  8
F
 10
8.947
 11
3.322
 20
5.875
 21
0.25
  0
LINE
  8
F
 10
2.969
 11
8.594
 20
0.25
 21
5.875
  0
LINE
  8
F
 10
8.24
 11
2.615
 20
5.875
 21
0.25
  0
LINE
  8
F
 10
2.262
 11
7.887
 20
0.25
 21
5.875
  0
LINE
  8
F
 10
7.533
 11
1.908
 20
5.875
 21
0.25
  0
LINE
  8
F
 10
1.555
 11
7.18
 20
0.25
 21
5.875
  0
LINE
  8
F
 10
6.826
 11
1.201
 20
5.875
 21
0.25
  0
LINE
  8
F
 10
0.847
 11
6.472
 20
0.25
 21
5.875
  0
LINE
  8
F
 10
6.119
 11
0.494
 20
5.875
 21
0.25
  0
LINE
  8
F
 10
0.14
 11
5.765
 20
0.25
 21
5.875
  0
LINE
  8
F
 10
5.412
 11
0.0
 20
5.875
 21
0.463
  0
LINE
  8
F
 10
0.0
 11
5.058
 20
0.817
 21
5.875
  0
LINE
  8
F
 10
4.705
 11
0.0
 20
5.875
 21
1.17
  0
LINE
  8
F
 10
0.0
 11
4.351
 20
1.524
 21
5.875
  0
LINE
  8
F
 10
3.998
 11
0.0
 20
5.875
 21
1.877
  0
LINE
  8
F
 10
0.0
 11
3.644
 20
2.231
 21
5.875
  0
LINE
  8
F
 10
3.29
 11
0.0
 20
5.875
 21
2.585
  0
LINE
  8
F
 10
0.0
 11
2.937
 20
2.938
 21
5.875
  0
LINE
  8
F
 10
2.583
 11
0.0
 20
5.875
 21
3.292
  0
LINE
  8
F
 10
0.0
 11
2.23
 20
3.645
 21
5.875
  0
LINE
  8
F
 10
1.876
 11
0.0
 20
5.875
 21
3.999
  0
LINE
  8
F
 10
0.0
 11
1.523
 20
4.352
 21
5.875
  0
LINE
  8
F
 10
1.169
 11
0.0
 20
5.875
 21
4.706
  0
LINE
  8
F
 10
0.0
 11
0.816
 20
5.059
 21
5.875
  0
LINE
  8
F
 10
0.462
 11
0.0
 20
5.875
 21
5.413
  0
LINE
  8
F
 10
0.0
 11
0.108
 20
5.767
 21
5.875
  0
LINE
  8
F
 10
-4.375
 11
-4.375
 20
64.472
 21
18.375
  0
LINE
  8
F
 10
-3.688
 11
-3.688
 20
18.375
 21
65.5
  0
LINE
  8
DIMENSIONS
 10
-4.375
 11
-4.375
 20
64.847
 21
71.954
  0
LINE
  8
DIMENSIONS
 10
21.25
 11
21.25
 20
65.875
 21
71.954
  0
LINE
  8
DIMENSIONS
 10
-4.375
 11
5.195
 20
71.579
 21
71.579
  0
LINE
  8
DIMENSIONS
 10
11.68
 11
21.25
 20
71.579
 21
71.579
  0
LINE
  8
DIMENSIONS
 10
-3.125
 11
-4.375
 20
71.37
 21
71.579
  0
LINE
  8
DIMENSIONS
 10
-4.375
 11
-3.125
 20
71.579
 21
71.787
  0
LINE
  8
DIMENSIONS
 10
-3.125
 11
-3.125
 20
71.787
 21
71.37
  0
LINE
  8
DIMENSIONS
 10
20.0
 11
21.25
 20
71.787
 21
71.579
  0
LINE
  8
DIMENSIONS
 10
21.25
 11
20.0
 20
71.579
 21
71.37
  0
LINE
  8
DIMENSIONS
 10
20.0
 11
20.0
 20
71.37
 21
71.787
  0
LINE
  8
F
 10
73.468
 11
69.75
 20
6.0
 21
6.0
  0
LINE
  8
F
 10
73.468
 11
94.688
 20
39.861
 21
39.861
  0
LINE
  8
F
 10
73.468
 11
94.688
 20
48.106
 21
48.106
  0
LINE
  8
F
 10
73.468
 11
94.688
 20
56.35
 21
56.35
  0
LINE
  8
F
 10
73.468
 11
94.688
 20
31.617
 21
31.617
  0
LINE
  8
F
 10
73.468
 11
94.688
 20
23.372
 21
23.372
  0
LINE
  8
F
 10
76.25
 11
76.25
 20
39.861
 21
64.472
  0
LINE
  8
F
 10
76.25
 11
73.468
 20
64.472
 21
64.472
  0
LINE
  8
F
 10
73.468
 11
69.75
 20
64.472
 21
64.472
  0
LINE
  8
F
 10
70.0
 11
91.0
 20
0.25
 21
0.25
  0
LINE
  8
F
 10
69.75
 11
73.468
 20
6.0
 21
6.0
  0
LINE
  8
F
 10
73.468
 11
73.468
 20
6.0
 21
64.472
  0
LINE
  8
F
 10
70.0
 11
70.0
 20
0.25
 21
6.0
  0
LINE
  8
F
 10
91.0
 11
91.0
 20
0.25
 21
5.875
  0
LINE
  8
F
 10
69.75
 11
94.688
 20
65.5
 21
65.5
  0
LINE
  8
F
 10
69.75
 11
95.375
 20
64.472
 21
64.472
  0
LINE
  8
F
 10
73.468
 11
73.468
 20
64.472
 21
65.5
  0
LINE
  8
F
 10
69.75
 11
69.75
 20
64.472
 21
6.0
  0
LINE
  8
F
 10
69.75
 11
69.75
 20
64.472
 21
65.5
  0
LINE
  8
F
 10
91.0
 11
90.5
 20
0.25
 21
0.25
  0
LINE
  8
F
 10
90.5
 11
90.5
 20
0.25
 21
0.0
  0
LINE
  8
F
 10
90.5
 11
91.0
 20
0.0
 21
0.0
  0
LINE
  8
F
 10
91.0
 11
91.0
 20
0.0
 21
0.25
  0
LINE
  8
F
 10
70.5
 11
70.0
 20
0.25
 21
0.25
  0
LINE
  8
F
 10
70.0
 11
70.0
 20
0.25
 21
0.0
  0
LINE
  8
F
 10
70.0
 11
70.5
 20
0.0
 21
0.0
  0
LINE
  8
F
 10
70.5
 11
70.5
 20
0.0
 21
0.25
  0
LINE
  8
F
 10
73.468
 11
92.325
 20
5.875
 21
5.875
  0
LINE
  8
F
 10
92.325
 11
95.5
 20
5.875
 21
18.375
  0
LINE
  8
F
 10
95.5
 11
73.468
 20
18.375
 21
18.375
  0
LINE
  8
F
 10
73.468
 11
73.468
 20
18.375
 21
5.875
  0
ARC
  8
F
 10
436.285
 20
75.022
 40
361.747
 50
185.578
 51
189.009
  0
LINE
  8
F
 10
91.0
 11
90.646
 20
0.604
 21
0.25
  0
LINE
  8
F
 10
90.293
 11
91.0
 20
0.25
 21
0.957
  0
LINE
  8
F
 10
91.0
 11
89.939
 20
1.311
 21
0.25
  0
LINE
  8
F
 10
89.586
 11
91.0
 20
0.25
 21
1.664
  0
LINE
  8
F
 10
91.0
 11
89.232
 20
2.018
 21
0.25
  0
LINE
  8
F
 10
88.879
 11
91.0
 20
0.25
 21
2.371
  0
LINE
  8
F
 10
91.0
 11
88.525
 20
2.725
 21
0.25
  0
LINE
  8
F
 10
88.172
 11
91.0
 20
0.25
 21
3.078
  0
LINE
  8
F
 10
91.0
 11
87.818
 20
3.432
 21
0.25
  0
LINE
  8
F
 10
87.464
 11
91.0
 20
0.25
 21
3.786
  0
LINE
  8
F
 10
91.0
 11
87.111
 20
4.139
 21
0.25
  0
LINE
  8
F
 10
86.757
 11
91.0
 20
0.25
 21
4.493
  0
LINE
  8
F
 10
91.0
 11
86.404
 20
4.846
 21
0.25
  0
LINE
  8
F
 10
86.05
 11
91.0
 20
0.25
 21
5.2
  0
LINE
  8
F
 10
91.0
 11
85.697
 20
5.553
 21
0.25
  0
LINE
  8
F
 10
85.343
 11
90.968
 20
0.25
 21
5.875
  0
LINE
  8
F
 10
90.615
 11
84.99
 20
5.875
 21
0.25
  0
LINE
  8
F
 10
84.636
 11
90.261
 20
0.25
 21
5.875
  0
LINE
  8
F
 10
89.907
 11
84.282
 20
5.875
 21
0.25
  0
LINE
  8
F
 10
83.929
 11
89.554
 20
0.25
 21
5.875
  0
LINE
  8
F
 10
89.2
 11
83.575
 20
5.875
 21
0.25
  0
LINE
  8
F
 10
83.222
 11
88.847
 20
0.25
 21
5.875
  0
LINE
  8
F
 10
88.493
 11
82.868
 20
5.875
 21
0.25
  0
LINE
  8
F
 10
82.515
 11
88.14
 20
0.25
 21
5.875
  0
LINE
  8
F
 10
87.786
 11
82.161
 20
5.875
 21
0.25
  0
LINE
  8
F
 10
81.808
 11
87.433
 20
0.25
 21
5.875
  0
LINE
  8
F
 10
87.079
 11
81.454
 20
5.875
 21
0.25
  0
LINE
  8
F
 10
81.101
 11
86.725
 20
0.25
 21
5.875
  0
LINE
  8
F
 10
86.372
 11
80.747
 20
5.875
 21
0.25
  0
LINE
  8
F
 10
80.393
 11
86.018
 20
0.25
 21
5.875
  0
LINE
  8
F
 10
85.665
 11
80.04
 20
5.875
 21
0.25
  0
LINE
  8
F
 10
79.686
 11
85.311
 20
0.25
 21
5.875
  0
LINE
  8
F
 10
84.958
 11
79.333
 20
5.875
 21
0.25
  0
LINE
  8
F
 10
78.979
 11
84.604
 20
0.25
 21
5.875
  0
LINE
  8
F
 10
84.251
 11
78.626
 20
5.875
 21
0.25
  0
LINE
  8
F
 10
78.272
 11
83.897
 20
0.25
 21
5.875
  0
LINE
  8
F
 10
83.544
 11
77.919
 20
5.875
 21
0.25
  0
LINE
  8
F
 10
77.565
 11
83.19
 20
0.25
 21
5.875
  0
LINE
  8
F
 10
82.836
 11
77.211
 20
5.875
 21
0.25
  0
LINE
  8
F
 10
76.858
 11
82.483
 20
0.25
 21
5.875
  0
LINE
  8
F
 10
82.129
 11
76.504
 20
5.875
 21
0.25
  0
LINE
  8
F
 10
76.151
 11
81.776
 20
0.25
 21
5.875
  0
LINE
  8
F
 10
81.422
 11
75.797
 20
5.875
 21
0.25
  0
LINE
  8
F
 10
75.444
 11
81.069
 20
0.25
 21
5.875
  0
LINE
  8
F
 10
80.715
 11
75.09
 20
5.875
 21
0.25
  0
LINE
  8
F
 10
74.737
 11
80.362
 20
0.25
 21
5.875
  0
LINE
  8
F
 10
80.008
 11
74.383
 20
5.875
 21
0.25
  0
LINE
  8
F
 10
74.029
 11
79.654
 20
0.25
 21
5.875
  0
LINE
  8
F
 10
79.301
 11
73.676
 20
5.875
 21
0.25
  0
LINE
  8
F
 10
73.322
 11
78.947
 20
0.25
 21
5.875
  0
LINE
  8
F
 10
78.594
 11
72.969
 20
5.875
 21
0.25
  0
LINE
  8
F
 10
72.615
 11
78.24
 20
0.25
 21
5.875
  0
LINE
  8
F
 10
77.887
 11
72.262
 20
5.875
 21
0.25
  0
LINE
  8
F
 10
71.908
 11
77.533
 20
0.25
 21
5.875
  0
LINE
  8
F
 10
77.18
 11
71.555
 20
5.875
 21
0.25
  0
LINE
  8
F
 10
71.201
 11
76.826
 20
0.25
 21
5.875
  0
LINE
  8
F
 10
76.472
 11
70.847
 20
5.875
 21
0.25
  0
LINE
  8
F
 10
70.494
 11
76.119
 20
0.25
 21
5.875
  0
LINE
  8
F
 10
75.765
 11
70.14
 20
5.875
 21
0.25
  0
LINE
  8
F
 10
70.0
 11
75.412
 20
0.463
 21
5.875
  0
LINE
  8
F
 10
75.058
 11
70.0
 20
5.875
 21
0.817
  0
LINE
  8
F
 10
70.0
 11
74.705
 20
1.17
 21
5.875
  0
LINE
  8
F
 10
74.351
 11
70.0
 20
5.875
 21
1.524
  0
LINE
  8
F
 10
70.0
 11
73.998
 20
1.877
 21
5.875
  0
LINE
  8
F
 10
73.644
 11
70.0
 20
5.875
 21
2.231
  0
LINE
  8
F
 10
70.0
 11
73.415
 20
2.585
 21
6.0
  0
LINE
  8
F
 10
73.062
 11
70.0
 20
6.0
 21
2.938
  0
LINE
  8
F
 10
70.0
 11
72.708
 20
3.292
 21
6.0
  0
LINE
  8
F
 10
72.355
 11
70.0
 20
6.0
 21
3.645
  0
LINE
  8
F
 10
70.0
 11
72.001
 20
3.999
 21
6.0
  0
LINE
  8
F
 10
71.648
 11
70.0
 20
6.0
 21
4.352
  0
LINE
  8
F
 10
70.0
 11
71.294
 20
4.706
 21
6.0
  0
LINE
  8
F
 10
70.941
 11
70.0
 20
6.0
 21
5.059
  0
LINE
  8
F
 10
70.0
 11
70.587
 20
5.413
 21
6.0
  0
LINE
  8
F
 10
70.233
 11
70.0
 20
6.0
 21
5.767
  0
LINE
  8
F
 10
70.354
 11
70.0
 20
0.25
 21
0.604
  0
LINE
  8
F
 10
70.0
 11
70.707
 20
0.957
 21
0.25
  0
LINE
  8
F
 10
71.061
 11
70.0
 20
0.25
 21
1.311
  0
LINE
  8
F
 10
70.0
 11
71.414
 20
1.664
 21
0.25
  0
LINE
  8
F
 10
71.768
 11
70.0
 20
0.25
 21
2.018
  0
LINE
  8
F
 10
70.0
 11
72.121
 20
2.371
 21
0.25
  0
LINE
  8
F
 10
72.475
 11
70.0
 20
0.25
 21
2.725
  0
LINE
  8
F
 10
70.0
 11
72.828
 20
3.078
 21
0.25
  0
LINE
  8
F
 10
73.182
 11
70.0
 20
0.25
 21
3.432
  0
LINE
  8
F
 10
70.0
 11
73.536
 20
3.786
 21
0.25
  0
LINE
  8
F
 10
73.889
 11
70.0
 20
0.25
 21
4.139
  0
LINE
  8
F
 10
70.0
 11
74.243
 20
4.493
 21
0.25
  0
LINE
  8
F
 10
74.596
 11
70.0
 20
0.25
 21
4.846
  0
LINE
  8
F
 10
70.0
 11
74.95
 20
5.2
 21
0.25
  0
LINE
  8
F
 10
75.303
 11
70.0
 20
0.25
 21
5.553
  0
LINE
  8
F
 10
70.0
 11
75.657
 20
5.907
 21
0.25
  0
LINE
  8
F
 10
76.01
 11
70.261
 20
0.25
 21
6.0
  0
LINE
  8
F
 10
70.614
 11
76.364
 20
6.0
 21
0.25
  0
LINE
  8
F
 10
76.718
 11
70.968
 20
0.25
 21
6.0
  0
LINE
  8
F
 10
71.321
 11
77.071
 20
6.0
 21
0.25
  0
LINE
  8
F
 10
77.425
 11
71.675
 20
0.25
 21
6.0
  0
LINE
  8
F
 10
72.028
 11
77.778
 20
6.0
 21
0.25
  0
LINE
  8
F
 10
78.132
 11
72.382
 20
0.25
 21
6.0
  0
LINE
  8
F
 10
72.735
 11
78.485
 20
6.0
 21
0.25
  0
LINE
  8
F
 10
78.839
 11
73.089
 20
0.25
 21
6.0
  0
LINE
  8
F
 10
73.567
 11
79.192
 20
5.875
 21
0.25
  0
LINE
  8
F
 10
79.546
 11
73.921
 20
0.25
 21
5.875
  0
LINE
  8
F
 10
74.275
 11
79.899
 20
5.875
 21
0.25
  0
LINE
  8
F
 10
80.253
 11
74.628
 20
0.25
 21
5.875
  0
LINE
  8
F
 10
74.982
 11
80.607
 20
5.875
 21
0.25
  0
LINE
  8
F
 10
80.96
 11
75.335
 20
0.25
 21
5.875
  0
LINE
  8
F
 10
75.689
 11
81.314
 20
5.875
 21
0.25
  0
LINE
  8
F
 10
81.667
 11
76.042
 20
0.25
 21
5.875
  0
LINE
  8
F
 10
76.396
 11
82.021
 20
5.875
 21
0.25
  0
LINE
  8
F
 10
82.374
 11
76.749
 20
0.25
 21
5.875
  0
LINE
  8
F
 10
77.103
 11
82.728
 20
5.875
 21
0.25
  0
LINE
  8
F
 10
83.081
 11
77.456
 20
0.25
 21
5.875
  0
LINE
  8
F
 10
77.81
 11
83.435
 20
5.875
 21
0.25
  0
LINE
  8
F
 10
83.789
 11
78.164
 20
0.25
 21
5.875
  0
LINE
  8
F
 10
78.517
 11
84.142
 20
5.875
 21
0.25
  0
LINE
  8
F
 10
84.496
 11
78.871
 20
0.25
 21
5.875
  0
LINE
  8
F
 10
79.224
 11
84.849
 20
5.875
 21
0.25
  0
LINE
  8
F
 10
85.203
 11
79.578
 20
0.25
 21
5.875
  0
LINE
  8
F
 10
79.931
 11
85.556
 20
5.875
 21
0.25
  0
LINE
  8
F
 10
85.91
 11
80.285
 20
0.25
 21
5.875
  0
LINE
  8
F
 10
80.638
 11
86.263
 20
5.875
 21
0.25
  0
LINE
  8
F
 10
86.617
 11
80.992
 20
0.25
 21
5.875
  0
LINE
  8
F
 10
81.346
 11
86.971
 20
5.875
 21
0.25
  0
LINE
  8
F
 10
87.324
 11
81.699
 20
0.25
 21
5.875
  0
LINE
  8
F
 10
82.053
 11
87.678
 20
5.875
 21
0.25
  0
LINE
  8
F
 10
88.031
 11
82.406
 20
0.25
 21
5.875
  0
LINE
  8
F
 10
82.76
 11
88.385
 20
5.875
 21
0.25
  0
LINE
  8
F
 10
88.738
 11
83.113
 20
0.25
 21
5.875
  0
LINE
  8
F
 10
83.467
 11
89.092
 20
5.875
 21
0.25
  0
LINE
  8
F
 10
89.445
 11
83.82
 20
0.25
 21
5.875
  0
LINE
  8
F
 10
84.174
 11
89.799
 20
5.875
 21
0.25
  0
LINE
  8
F
 10
90.153
 11
84.528
 20
0.25
 21
5.875
  0
LINE
  8
F
 10
84.881
 11
90.506
 20
5.875
 21
0.25
  0
LINE
  8
F
 10
90.86
 11
85.235
 20
0.25
 21
5.875
  0
LINE
  8
F
 10
85.588
 11
91.0
 20
5.875
 21
0.463
  0
LINE
  8
F
 10
91.0
 11
85.942
 20
0.817
 21
5.875
  0
LINE
  8
F
 10
86.295
 11
91.0
 20
5.875
 21
1.17
  0
LINE
  8
F
 10
91.0
 11
86.649
 20
1.524
 21
5.875
  0
LINE
  8
F
 10
87.002
 11
91.0
 20
5.875
 21
1.877
  0
LINE
  8
F
 10
91.0
 11
87.356
 20
2.231
 21
5.875
  0
LINE
  8
F
 10
87.71
 11
91.0
 20
5.875
 21
2.585
  0
LINE
  8
F
 10
91.0
 11
88.063
 20
2.938
 21
5.875
  0
LINE
  8
F
 10
88.417
 11
91.0
 20
5.875
 21
3.292
  0
LINE
  8
F
 10
91.0
 11
88.77
 20
3.645
 21
5.875
  0
LINE
  8
F
 10
89.124
 11
91.0
 20
5.875
 21
3.999
  0
LINE
  8
F
 10
91.0
 11
89.477
 20
4.352
 21
5.875
  0
LINE
  8
F
 10
89.831
 11
91.0
 20
5.875
 21
4.706
  0
LINE
  8
F
 10
91.0
 11
90.184
 20
5.059
 21
5.875
  0
LINE
  8
F
 10
90.538
 11
91.0
 20
5.875
 21
5.413
  0
LINE
  8
F
 10
91.0
 11
90.892
 20
5.767
 21
5.875
  0
LINE
  8
F
 10
95.375
 11
95.375
 20
64.472
 21
18.375
  0
LINE
  8
F
 10
94.688
 11
94.688
 20
18.375
 21
65.5
  0
LINE
  8
DIMENSIONS
 10
69.625
 11
52.122
 20
0.0
 21
0.0
  0
LINE
  8
DIMENSIONS
 10
69.375
 11
52.122
 20
65.5
 21
65.5
  0
LINE
  8
DIMENSIONS
 10
52.497
 11
52.497
 20
0.0
 21
31.797
  0
LINE
  8
DIMENSIONS
 10
52.497
 11
52.497
 20
33.689
 21
65.5
  0
LINE
  8
DIMENSIONS
 10
52.705
 11
52.497
 20
1.25
 21
0.0
  0
LINE
  8
DIMENSIONS
 10
52.497
 11
52.289
 20
0.0
 21
1.25
  0
LINE
  8
DIMENSIONS
 10
52.289
 11
52.705
 20
1.25
 21
1.25
  0
LINE
  8
DIMENSIONS
 10
52.289
 11
52.497
 20
64.25
 21
65.5
  0
LINE
  8
DIMENSIONS
 10
52.497
 11
52.705
 20
65.5
 21
64.25
  0
LINE
  8
DIMENSIONS
 10
52.705
 11
52.289
 20
64.25
 21
64.25
  0
LINE
  8
DIMENSIONS
 10
91.375
 11
103.377
 20
0.0
 21
0.0
  0
LINE
  8
DIMENSIONS
 10
95.875
 11
103.377
 20
18.375
 21
18.375
  0
LINE
  8
DIMENSIONS
 10
103.002
 11
103.002
 20
0.0
 21
8.238
  0
LINE
  8
DIMENSIONS
 10
103.002
 11
103.002
 20
10.129
 21
18.375
  0
LINE
  8
DIMENSIONS
 10
103.21
 11
103.002
 20
1.25
 21
0.0
  0
LINE
  8
DIMENSIONS
 10
103.002
 11
102.794
 20
0.0
 21
1.25
  0
LINE
  8
DIMENSIONS
 10
102.794
 11
103.21
 20
1.25
 21
1.25
  0
LINE
  8
DIMENSIONS
 10
102.794
 11
103.002
 20
17.125
 21
18.375
  0
LINE
  8
DIMENSIONS
 10
103.002
 11
103.21
 20
18.375
 21
17.125
  0
LINE
  8
DIMENSIONS
 10
103.21
 11
102.794
 20
17.125
 21
17.125
  0
TEXT
  8
F
 10
7.649
 20
-5.065
 30
0.0
 40
1.25
 50
0.0
  1
21.000
  0
TEXT
  8
F
 10
5.362
 20
-11.982
 30
0.0
 40
1.25
 50
0.0
  1
25.750
  0
TEXT
  8
F
 10
22.615
 20
67.16
 30
0.0
 40
1.25
 50
0.0
  1
6.500
  0
TEXT
  8
DIMENSIONS
 10
5.508
 20
70.954
 30
0.0
 40
1.25
 50
0.0
  1
25.625
  0
TEXT
  8
DIMENSIONS
 10
49.415
 20
32.125
 30
0.0
 40
1.25
 50
0.0
  1
65.500
  0
TEXT
  8
DIMENSIONS
 10
100.231
 20
8.563
 30
0.0
 40
1.25
 50
0.0
  1
18.375
  0
ENDSEC
  0
EOF
