  0
SECTION
  2
ENTITIES
  0
LINE
  8
F
 10
17.532
 11
21.25
 20
6.0
 21
6.0
  0
LINE
  8
F
 10
17.532
 11
14.75
 20
39.861
 21
39.861
  0
LINE
  8
F
 10
17.532
 11
14.75
 20
48.106
 21
48.106
  0
LINE
  8
F
 10
17.532
 11
14.75
 20
56.35
 21
56.35
  0
LINE
  8
F
 10
17.532
 11
13.854
 20
31.617
 21
31.617
  0
LINE
  8
F
 10
17.532
 11
12.731
 20
23.372
 21
23.372
  0
LINE
  8
F
 10
14.75
 11
14.75
 20
39.861
 21
64.472
  0
LINE
  8
F
 10
14.75
 11
17.532
 20
64.472
 21
64.472
  0
LINE
  8
F
 10
17.532
 11
21.25
 20
64.472
 21
64.472
  0
LINE
  8
F
 10
21.0
 11
0.0
 20
0.25
 21
0.25
  0
LINE
  8
F
 10
21.25
 11
17.532
 20
6.0
 21
6.0
  0
LINE
  8
F
 10
17.532
 11
17.532
 20
6.0
 21
64.472
  0
LINE
  8
F
 10
21.0
 11
21.0
 20
0.25
 21
6.0
  0
LINE
  8
F
 10
0.0
 11
0.0
 20
0.25
 21
5.875
  0
LINE
  8
F
 10
21.25
 11
17.532
 20
65.5
 21
65.5
  0
LINE
  8
F
 10
21.25
 11
17.532
 20
64.472
 21
64.472
  0
LINE
  8
F
 10
17.532
 11
17.532
 20
64.472
 21
65.5
  0
LINE
  8
F
 10
21.25
 11
21.25
 20
64.472
 21
6.0
  0
LINE
  8
F
 10
21.25
 11
21.25
 20
64.472
 21
65.5
  0
LINE
  8
F
 10
0.0
 11
0.5
 20
0.25
 21
0.25
  0
LINE
  8
F
 10
0.5
 11
0.5
 20
0.25
 21
0.0
  0
LINE
  8
F
 10
0.5
 11
0.0
 20
0.0
 21
0.0
  0
LINE
  8
F
 10
0.0
 11
0.0
 20
0.0
 21
0.25
  0
LINE
  8
F
 10
20.5
 11
21.0
 20
0.25
 21
0.25
  0
LINE
  8
F
 10
21.0
 11
21.0
 20
0.25
 21
0.0
  0
LINE
  8
F
 10
21.0
 11
20.5
 20
0.0
 21
0.0
  0
LINE
  8
F
 10
20.5
 11
20.5
 20
0.0
 21
0.25
  0
LINE
  8
F
 10
17.532
 11
-1.325
 20
5.875
 21
5.875
  0
LINE
  8
F
 10
-1.325
 11
-4.5
 20
5.875
 21
18.375
  0
LINE
  8
F
 10
-4.5
 11
17.532
 20
18.375
 21
18.375
  0
LINE
  8
F
 10
17.532
 11
17.532
 20
18.375
 21
5.875
  0
ARC
  8
F
 10
-345.285
 20
75.022
 40
361.747
 50
350.991
 51
354.422
  0
LINE
  8
F
 10
14.75
 11
14.75
 20
64.847
 21
68.16
  0
LINE
  8
F
 10
21.25
 11
21.25
 20
65.875
 21
68.16
  0
LINE
  8
F
 10
14.75
 11
22.315
 20
67.785
 21
67.785
  0
LINE
  8
F
 10
16.0
 11
14.75
 20
67.576
 21
67.785
  0
LINE
  8
F
 10
14.75
 11
16.0
 20
67.785
 21
67.993
  0
LINE
  8
F
 10
16.0
 11
16.0
 20
67.993
 21
67.576
  0
LINE
  8
F
 10
20.0
 11
21.25
 20
67.993
 21
67.785
  0
LINE
  8
F
 10
21.25
 11
20.0
 20
67.785
 21
67.576
  0
LINE
  8
F
 10
20.0
 11
20.0
 20
67.576
 21
67.993
  0
LINE
  8
F
 10
-4.5
 11
-4.5
 20
18.75
 21
22.228
  0
LINE
  8
F
 10
12.0
 11
12.0
 20
18.75
 21
22.228
  0
LINE
  8
F
 10
-4.5
 11
0.6
 20
21.853
 21
21.853
  0
LINE
  8
F
 10
6.9
 11
12.0
 20
21.853
 21
21.853
  0
LINE
  8
F
 10
-3.25
 11
-4.5
 20
21.645
 21
21.853
  0
LINE
  8
F
 10
-4.5
 11
-3.25
 20
21.853
 21
22.061
  0
LINE
  8
F
 10
-3.25
 11
-3.25
 20
22.061
 21
21.645
  0
LINE
  8
F
 10
10.75
 11
12.0
 20
22.061
 21
21.853
  0
LINE
  8
F
 10
12.0
 11
10.75
 20
21.853
 21
21.645
  0
LINE
  8
F
 10
10.75
 11
10.75
 20
21.645
 21
22.061
  0
LINE
  8
F
 10
-4.5
 11
-4.5
 20
18.0
 21
-11.732
  0
LINE
  8
F
 10
21.25
 11
21.25
 20
5.625
 21
-11.732
  0
LINE
  8
F
 10
-4.5
 11
5.05
 20
-11.357
 21
-11.357
  0
LINE
  8
F
 10
11.7
 11
21.25
 20
-11.357
 21
-11.357
  0
LINE
  8
F
 10
-3.25
 11
-4.5
 20
-11.565
 21
-11.357
  0
LINE
  8
F
 10
-4.5
 11
-3.25
 20
-11.357
 21
-11.148
  0
LINE
  8
F
 10
-3.25
 11
-3.25
 20
-11.148
 21
-11.565
  0
LINE
  8
F
 10
20.0
 11
21.25
 20
-11.148
 21
-11.357
  0
LINE
  8
F
 10
21.25
 11
20.0
 20
-11.357
 21
-11.565
  0
LINE
  8
F
 10
20.0
 11
20.0
 20
-11.565
 21
-11.148
  0
LINE
  8
F
 10
0.0
 11
0.0
 20
-0.125
 21
-4.815
  0
LINE
  8
F
 10
21.0
 11
21.0
 20
-0.125
 21
-4.815
  0
LINE
  8
F
 10
0.0
 11
7.336
 20
-4.44
 21
-4.44
  0
LINE
  8
F
 10
13.664
 11
21.0
 20
-4.44
 21
-4.44
  0
LINE
  8
F
 10
1.25
 11
0.0
 20
-4.649
 21
-4.44
  0
LINE
  8
F
 10
0.0
 11
1.25
 20
-4.44
 21
-4.232
  0
LINE
  8
F
 10
1.25
 11
1.25
 20
-4.232
 21
-4.649
  0
LINE
  8
F
 10
19.75
 11
21.0
 20
-4.232
 21
-4.44
  0
LINE
  8
F
 10
21.0
 11
19.75
 20
-4.44
 21
-4.649
  0
LINE
  8
F
 10
19.75
 11
19.75
 20
-4.649
 21
-4.232
  0
LINE
  8
F
 10
0.0
 11
0.354
 20
0.604
 21
0.25
  0
LINE
  8
F
 10
0.707
 11
0.0
 20
0.25
 21
0.957
  0
LINE
  8
F
 10
0.0
 11
1.061
 20
1.311
 21
0.25
  0
LINE
  8
F
 10
1.414
 11
0.0
 20
0.25
 21
1.664
  0
LINE
  8
F
 10
0.0
 11
1.768
 20
2.018
 21
0.25
  0
LINE
  8
F
 10
2.121
 11
0.0
 20
0.25
 21
2.371
  0
LINE
  8
F
 10
0.0
 11
2.475
 20
2.725
 21
0.25
  0
LINE
  8
F
 10
2.828
 11
0.0
 20
0.25
 21
3.078
  0
LINE
  8
F
 10
0.0
 11
3.182
 20
3.432
 21
0.25
  0
LINE
  8
F
 10
3.536
 11
0.0
 20
0.25
 21
3.786
  0
LINE
  8
F
 10
0.0
 11
3.889
 20
4.139
 21
0.25
  0
LINE
  8
F
 10
4.243
 11
0.0
 20
0.25
 21
4.493
  0
LINE
  8
F
 10
0.0
 11
4.596
 20
4.846
 21
0.25
  0
LINE
  8
F
 10
4.95
 11
0.0
 20
0.25
 21
5.2
  0
LINE
  8
F
 10
0.0
 11
5.303
 20
5.553
 21
0.25
  0
LINE
  8
F
 10
5.657
 11
0.032
 20
0.25
 21
5.875
  0
LINE
  8
F
 10
0.385
 11
6.01
 20
5.875
 21
0.25
  0
LINE
  8
F
 10
6.364
 11
0.739
 20
0.25
 21
5.875
  0
LINE
  8
F
 10
1.093
 11
6.718
 20
5.875
 21
0.25
  0
LINE
  8
F
 10
7.071
 11
1.446
 20
0.25
 21
5.875
  0
LINE
  8
F
 10
1.8
 11
7.425
 20
5.875
 21
0.25
  0
LINE
  8
F
 10
7.778
 11
2.153
 20
0.25
 21
5.875
  0
LINE
  8
F
 10
2.507
 11
8.132
 20
5.875
 21
0.25
  0
LINE
  8
F
 10
8.485
 11
2.86
 20
0.25
 21
5.875
  0
LINE
  8
F
 10
3.214
 11
8.839
 20
5.875
 21
0.25
  0
LINE
  8
F
 10
9.192
 11
3.567
 20
0.25
 21
5.875
  0
LINE
  8
F
 10
3.921
 11
9.546
 20
5.875
 21
0.25
  0
LINE
  8
F
 10
9.899
 11
4.275
 20
0.25
 21
5.875
  0
LINE
  8
F
 10
4.628
 11
10.253
 20
5.875
 21
0.25
  0
LINE
  8
F
 10
10.607
 11
4.982
 20
0.25
 21
5.875
  0
LINE
  8
F
 10
5.335
 11
10.96
 20
5.875
 21
0.25
  0
LINE
  8
F
 10
11.314
 11
5.689
 20
0.25
 21
5.875
  0
LINE
  8
F
 10
6.042
 11
11.667
 20
5.875
 21
0.25
  0
LINE
  8
F
 10
12.021
 11
6.396
 20
0.25
 21
5.875
  0
LINE
  8
F
 10
6.749
 11
12.374
 20
5.875
 21
0.25
  0
LINE
  8
F
 10
12.728
 11
7.103
 20
0.25
 21
5.875
  0
LINE
  8
F
 10
7.456
 11
13.081
 20
5.875
 21
0.25
  0
LINE
  8
F
 10
13.435
 11
7.81
 20
0.25
 21
5.875
  0
LINE
  8
F
 10
8.164
 11
13.789
 20
5.875
 21
0.25
  0
LINE
  8
F
 10
14.142
 11
8.517
 20
0.25
 21
5.875
  0
LINE
  8
F
 10
8.871
 11
14.496
 20
5.875
 21
0.25
  0
LINE
  8
F
 10
14.849
 11
9.224
 20
0.25
 21
5.875
  0
LINE
  8
F
 10
9.578
 11
15.203
 20
5.875
 21
0.25
  0
LINE
  8
F
 10
15.556
 11
9.931
 20
0.25
 21
5.875
  0
LINE
  8
F
 10
10.285
 11
15.91
 20
5.875
 21
0.25
  0
LINE
  8
F
 10
16.263
 11
10.638
 20
0.25
 21
5.875
  0
LINE
  8
F
 10
10.992
 11
16.617
 20
5.875
 21
0.25
  0
LINE
  8
F
 10
16.971
 11
11.346
 20
0.25
 21
5.875
  0
LINE
  8
F
 10
11.699
 11
17.324
 20
5.875
 21
0.25
  0
LINE
  8
F
 10
17.678
 11
12.053
 20
0.25
 21
5.875
  0
LINE
  8
F
 10
12.406
 11
18.031
 20
5.875
 21
0.25
  0
LINE
  8
F
 10
18.385
 11
12.76
 20
0.25
 21
5.875
  0
LINE
  8
F
 10
13.113
 11
18.738
 20
5.875
 21
0.25
  0
LINE
  8
F
 10
19.092
 11
13.467
 20
0.25
 21
5.875
  0
LINE
  8
F
 10
13.82
 11
19.445
 20
5.875
 21
0.25
  0
LINE
  8
F
 10
19.799
 11
14.174
 20
0.25
 21
5.875
  0
LINE
  8
F
 10
14.528
 11
20.153
 20
5.875
 21
0.25
  0
LINE
  8
F
 10
20.506
 11
14.881
 20
0.25
 21
5.875
  0
LINE
  8
F
 10
15.235
 11
20.86
 20
5.875
 21
0.25
  0
LINE
  8
F
 10
21.0
 11
15.588
 20
0.463
 21
5.875
  0
LINE
  8
F
 10
15.942
 11
21.0
 20
5.875
 21
0.817
  0
LINE
  8
F
 10
21.0
 11
16.295
 20
1.17
 21
5.875
  0
LINE
  8
F
 10
16.649
 11
21.0
 20
5.875
 21
1.524
  0
LINE
  8
F
 10
21.0
 11
17.002
 20
1.877
 21
5.875
  0
LINE
  8
F
 10
17.356
 11
21.0
 20
5.875
 21
2.231
  0
LINE
  8
F
 10
21.0
 11
17.585
 20
2.585
 21
6.0
  0
LINE
  8
F
 10
17.938
 11
21.0
 20
6.0
 21
2.938
  0
LINE
  8
F
 10
21.0
 11
18.292
 20
3.292
 21
6.0
  0
LINE
  8
F
 10
18.645
 11
21.0
 20
6.0
 21
3.645
  0
LINE
  8
F
 10
21.0
 11
18.999
 20
3.999
 21
6.0
  0
LINE
  8
F
 10
19.352
 11
21.0
 20
6.0
 21
4.352
  0
LINE
  8
F
 10
21.0
 11
19.706
 20
4.706
 21
6.0
  0
LINE
  8
F
 10
20.059
 11
21.0
 20
6.0
 21
5.059
  0
LINE
  8
F
 10
21.0
 11
20.413
 20
5.413
 21
6.0
  0
LINE
  8
F
 10
20.767
 11
21.0
 20
6.0
 21
5.767
  0
LINE
  8
F
 10
20.646
 11
21.0
 20
0.25
 21
0.604
  0
LINE
  8
F
 10
21.0
 11
20.293
 20
0.957
 21
0.25
  0
LINE
  8
F
 10
19.939
 11
21.0
 20
0.25
 21
1.311
  0
LINE
  8
F
 10
21.0
 11
19.586
 20
1.664
 21
0.25
  0
LINE
  8
F
 10
19.232
 11
21.0
 20
0.25
 21
2.018
  0
LINE
  8
F
 10
21.0
 11
18.879
 20
2.371
 21
0.25
  0
LINE
  8
F
 10
18.525
 11
21.0
 20
0.25
 21
2.725
  0
LINE
  8
F
 10
21.0
 11
18.172
 20
3.078
 21
0.25
  0
LINE
  8
F
 10
17.818
 11
21.0
 20
0.25
 21
3.432
  0
LINE
  8
F
 10
21.0
 11
17.464
 20
3.786
 21
0.25
  0
LINE
  8
F
 10
17.111
 11
21.0
 20
0.25
 21
4.139
  0
LINE
  8
F
 10
21.0
 11
16.757
 20
4.493
 21
0.25
  0
LINE
  8
F
 10
16.404
 11
21.0
 20
0.25
 21
4.846
  0
LINE
  8
F
 10
21.0
 11
16.05
 20
5.2
 21
0.25
  0
LINE
  8
F
 10
15.697
 11
21.0
 20
0.25
 21
5.553
  0
LINE
  8
F
 10
21.0
 11
15.343
 20
5.907
 21
0.25
  0
LINE
  8
F
 10
14.99
 11
20.739
 20
0.25
 21
6.0
  0
LINE
  8
F
 10
20.386
 11
14.636
 20
6.0
 21
0.25
  0
LINE
  8
F
 10
14.282
 11
20.032
 20
0.25
 21
6.0
  0
LINE
  8
F
 10
19.679
 11
13.929
 20
6.0
 21
0.25
  0
LINE
  8
F
 10
13.575
 11
19.325
 20
0.25
 21
6.0
  0
LINE
  8
F
 10
18.972
 11
13.222
 20
6.0
 21
0.25
  0
LINE
  8
F
 10
12.868
 11
18.618
 20
0.25
 21
6.0
  0
LINE
  8
F
 10
18.265
 11
12.515
 20
6.0
 21
0.25
  0
LINE
  8
F
 10
12.161
 11
17.911
 20
0.25
 21
6.0
  0
LINE
  8
F
 10
17.433
 11
11.808
 20
5.875
 21
0.25
  0
LINE
  8
F
 10
11.454
 11
17.079
 20
0.25
 21
5.875
  0
LINE
  8
F
 10
16.725
 11
11.101
 20
5.875
 21
0.25
  0
LINE
  8
F
 10
10.747
 11
16.372
 20
0.25
 21
5.875
  0
LINE
  8
F
 10
16.018
 11
10.393
 20
5.875
 21
0.25
  0
LINE
  8
F
 10
10.04
 11
15.665
 20
0.25
 21
5.875
  0
LINE
  8
F
 10
15.311
 11
9.686
 20
5.875
 21
0.25
  0
LINE
  8
F
 10
9.333
 11
14.958
 20
0.25
 21
5.875
  0
LINE
  8
F
 10
14.604
 11
8.979
 20
5.875
 21
0.25
  0
LINE
  8
F
 10
8.626
 11
14.251
 20
0.25
 21
5.875
  0
LINE
  8
F
 10
13.897
 11
8.272
 20
5.875
 21
0.25
  0
LINE
  8
F
 10
7.919
 11
13.544
 20
0.25
 21
5.875
  0
LINE
  8
F
 10
13.19
 11
7.565
 20
5.875
 21
0.25
  0
LINE
  8
F
 10
7.211
 11
12.836
 20
0.25
 21
5.875
  0
LINE
  8
F
 10
12.483
 11
6.858
 20
5.875
 21
0.25
  0
LINE
  8
F
 10
6.504
 11
12.129
 20
0.25
 21
5.875
  0
LINE
  8
F
 10
11.776
 11
6.151
 20
5.875
 21
0.25
  0
LINE
  8
F
 10
5.797
 11
11.422
 20
0.25
 21
5.875
  0
LINE
  8
F
 10
11.069
 11
5.444
 20
5.875
 21
0.25
  0
LINE
  8
F
 10
5.09
 11
10.715
 20
0.25
 21
5.875
  0
LINE
  8
F
 10
10.362
 11
4.737
 20
5.875
 21
0.25
  0
LINE
  8
F
 10
4.383
 11
10.008
 20
0.25
 21
5.875
  0
LINE
  8
F
 10
9.654
 11
4.029
 20
5.875
 21
0.25
  0
LINE
  8
F
 10
3.676
 11
9.301
 20
0.25
 21
5.875
  0
LINE
  8
F
 10
8.947
 11
3.322
 20
5.875
 21
0.25
  0
LINE
  8
F
 10
2.969
 11
8.594
 20
0.25
 21
5.875
  0
LINE
  8
F
 10
8.24
 11
2.615
 20
5.875
 21
0.25
  0
LINE
  8
F
 10
2.262
 11
7.887
 20
0.25
 21
5.875
  0
LINE
  8
F
 10
7.533
 11
1.908
 20
5.875
 21
0.25
  0
LINE
  8
F
 10
1.555
 11
7.18
 20
0.25
 21
5.875
  0
LINE
  8
F
 10
6.826
 11
1.201
 20
5.875
 21
0.25
  0
LINE
  8
F
 10
0.847
 11
6.472
 20
0.25
 21
5.875
  0
LINE
  8
F
 10
6.119
 11
0.494
 20
5.875
 21
0.25
  0
LINE
  8
F
 10
0.14
 11
5.765
 20
0.25
 21
5.875
  0
LINE
  8
F
 10
5.412
 11
0.0
 20
5.875
 21
0.463
  0
LINE
  8
F
 10
0.0
 11
5.058
 20
0.817
 21
5.875
  0
LINE
  8
F
 10
4.705
 11
0.0
 20
5.875
 21
1.17
  0
LINE
  8
F
 10
0.0
 11
4.351
 20
1.524
 21
5.875
  0
LINE
  8
F
 10
3.998
 11
0.0
 20
5.875
 21
1.877
  0
LINE
  8
F
 10
0.0
 11
3.644
 20
2.231
 21
5.875
  0
LINE
  8
F
 10
3.29
 11
0.0
 20
5.875
 21
2.585
  0
LINE
  8
F
 10
0.0
 11
2.937
 20
2.938
 21
5.875
  0
LINE
  8
F
 10
2.583
 11
0.0
 20
5.875
 21
3.292
  0
LINE
  8
F
 10
0.0
 11
2.23
 20
3.645
 21
5.875
  0
LINE
  8
F
 10
1.876
 11
0.0
 20
5.875
 21
3.999
  0
LINE
  8
F
 10
0.0
 11
1.523
 20
4.352
 21
5.875
  0
LINE
  8
F
 10
1.169
 11
0.0
 20
5.875
 21
4.706
  0
LINE
  8
F
 10
0.0
 11
0.816
 20
5.059
 21
5.875
  0
LINE
  8
F
 10
0.462
 11
0.0
 20
5.875
 21
5.413
  0
LINE
  8
F
 10
0.0
 11
0.108
 20
5.767
 21
5.875
  0
LINE
  8
F
 10
68.938
 11
94.813
 20
18.375
 21
18.375
  0
LINE
  8
F
 10
68.938
 11
94.813
 20
6.0
 21
6.0
  0
LINE
  8
F
 10
69.0
 11
94.75
 20
64.72
 21
64.72
  0
LINE
  8
F
 10
68.938
 11
68.938
 20
18.375
 21
6.0
  0
LINE
  8
F
 10
94.813
 11
94.813
 20
18.375
 21
6.0
  0
LINE
  8
F
 10
94.75
 11
94.75
 20
64.72
 21
18.375
  0
LINE
  8
F
 10
69.0
 11
69.0
 20
64.72
 21
18.375
  0
LINE
  8
F
 10
69.688
 11
94.063
 20
65.5
 21
65.5
  0
LINE
  8
F
 10
94.063
 11
94.063
 20
65.5
 21
64.72
  0
LINE
  8
F
 10
94.75
 11
69.0
 20
64.72
 21
64.72
  0
LINE
  8
F
 10
69.688
 11
69.688
 20
64.72
 21
65.5
  0
LINE
  8
F
 10
69.688
 11
94.063
 20
23.497
 21
23.497
  0
LINE
  8
F
 10
94.063
 11
94.063
 20
23.497
 21
18.375
  0
LINE
  8
F
 10
69.688
 11
69.688
 20
18.375
 21
23.497
  0
LINE
  8
F
 10
69.0
 11
94.75
 20
64.72
 21
64.72
  0
LINE
  8
F
 10
94.063
 11
94.063
 20
64.72
 21
56.475
  0
LINE
  8
F
 10
94.063
 11
69.688
 20
56.475
 21
56.475
  0
LINE
  8
F
 10
69.688
 11
69.688
 20
56.475
 21
64.72
  0
LINE
  8
F
 10
94.063
 11
94.063
 20
56.475
 21
48.231
  0
LINE
  8
F
 10
94.063
 11
69.688
 20
48.231
 21
48.231
  0
LINE
  8
F
 10
69.688
 11
69.688
 20
48.231
 21
56.475
  0
LINE
  8
F
 10
94.063
 11
94.063
 20
48.231
 21
39.986
  0
LINE
  8
F
 10
94.063
 11
69.688
 20
39.986
 21
39.986
  0
LINE
  8
F
 10
69.688
 11
69.688
 20
39.986
 21
48.231
  0
LINE
  8
F
 10
94.063
 11
94.063
 20
39.986
 21
31.742
  0
LINE
  8
F
 10
94.063
 11
69.688
 20
31.742
 21
31.742
  0
LINE
  8
F
 10
69.688
 11
69.688
 20
31.742
 21
39.986
  0
LINE
  8
F
 10
94.063
 11
94.063
 20
31.742
 21
23.497
  0
LINE
  8
F
 10
69.688
 11
69.688
 20
23.497
 21
31.742
  0
LINE
  8
F
 10
70.0
 11
93.75
 20
0.25
 21
0.25
  0
LINE
  8
F
 10
93.75
 11
93.75
 20
0.25
 21
6.0
  0
LINE
  8
F
 10
93.75
 11
70.0
 20
6.0
 21
6.0
  0
LINE
  8
F
 10
70.0
 11
70.0
 20
6.0
 21
0.25
  0
LINE
  8
F
 10
70.0
 11
70.5
 20
0.25
 21
0.25
  0
LINE
  8
F
 10
70.5
 11
70.5
 20
0.25
 21
0.0
  0
LINE
  8
F
 10
70.5
 11
70.0
 20
0.0
 21
0.0
  0
LINE
  8
F
 10
70.0
 11
70.0
 20
0.0
 21
0.25
  0
LINE
  8
F
 10
93.25
 11
93.75
 20
0.25
 21
0.25
  0
LINE
  8
F
 10
93.75
 11
93.75
 20
0.25
 21
0.0
  0
LINE
  8
F
 10
93.75
 11
93.25
 20
0.0
 21
0.0
  0
LINE
  8
F
 10
93.25
 11
93.25
 20
0.0
 21
0.25
  0
LINE
  8
F
 10
70.0
 11
70.354
 20
0.604
 21
0.25
  0
LINE
  8
F
 10
70.707
 11
70.0
 20
0.25
 21
0.957
  0
LINE
  8
F
 10
70.0
 11
71.061
 20
1.311
 21
0.25
  0
LINE
  8
F
 10
71.414
 11
70.0
 20
0.25
 21
1.664
  0
LINE
  8
F
 10
70.0
 11
71.768
 20
2.018
 21
0.25
  0
LINE
  8
F
 10
72.121
 11
70.0
 20
0.25
 21
2.371
  0
LINE
  8
F
 10
70.0
 11
72.475
 20
2.725
 21
0.25
  0
LINE
  8
F
 10
72.828
 11
70.0
 20
0.25
 21
3.078
  0
LINE
  8
F
 10
70.0
 11
73.182
 20
3.432
 21
0.25
  0
LINE
  8
F
 10
73.536
 11
70.0
 20
0.25
 21
3.786
  0
LINE
  8
F
 10
70.0
 11
73.889
 20
4.139
 21
0.25
  0
LINE
  8
F
 10
74.243
 11
70.0
 20
0.25
 21
4.493
  0
LINE
  8
F
 10
70.0
 11
74.596
 20
4.846
 21
0.25
  0
LINE
  8
F
 10
74.95
 11
70.0
 20
0.25
 21
5.2
  0
LINE
  8
F
 10
70.0
 11
75.303
 20
5.553
 21
0.25
  0
LINE
  8
F
 10
75.657
 11
70.0
 20
0.25
 21
5.907
  0
LINE
  8
F
 10
70.26
 11
76.01
 20
6.0
 21
0.25
  0
LINE
  8
F
 10
76.364
 11
70.614
 20
0.25
 21
6.0
  0
LINE
  8
F
 10
70.968
 11
76.718
 20
6.0
 21
0.25
  0
LINE
  8
F
 10
77.071
 11
71.321
 20
0.25
 21
6.0
  0
LINE
  8
F
 10
71.675
 11
77.425
 20
6.0
 21
0.25
  0
LINE
  8
F
 10
77.778
 11
72.028
 20
0.25
 21
6.0
  0
LINE
  8
F
 10
72.382
 11
78.132
 20
6.0
 21
0.25
  0
LINE
  8
F
 10
78.485
 11
72.735
 20
0.25
 21
6.0
  0
LINE
  8
F
 10
73.089
 11
78.839
 20
6.0
 21
0.25
  0
LINE
  8
F
 10
79.192
 11
73.442
 20
0.25
 21
6.0
  0
LINE
  8
F
 10
73.796
 11
79.546
 20
6.0
 21
0.25
  0
LINE
  8
F
 10
79.899
 11
74.149
 20
0.25
 21
6.0
  0
LINE
  8
F
 10
74.503
 11
80.253
 20
6.0
 21
0.25
  0
LINE
  8
F
 10
80.607
 11
74.857
 20
0.25
 21
6.0
  0
LINE
  8
F
 10
75.21
 11
80.96
 20
6.0
 21
0.25
  0
LINE
  8
F
 10
81.314
 11
75.564
 20
0.25
 21
6.0
  0
LINE
  8
F
 10
75.917
 11
81.667
 20
6.0
 21
0.25
  0
LINE
  8
F
 10
82.021
 11
76.271
 20
0.25
 21
6.0
  0
LINE
  8
F
 10
76.624
 11
82.374
 20
6.0
 21
0.25
  0
LINE
  8
F
 10
82.728
 11
76.978
 20
0.25
 21
6.0
  0
LINE
  8
F
 10
77.331
 11
83.081
 20
6.0
 21
0.25
  0
LINE
  8
F
 10
83.435
 11
77.685
 20
0.25
 21
6.0
  0
LINE
  8
F
 10
78.039
 11
83.789
 20
6.0
 21
0.25
  0
LINE
  8
F
 10
84.142
 11
78.392
 20
0.25
 21
6.0
  0
LINE
  8
F
 10
78.746
 11
84.496
 20
6.0
 21
0.25
  0
LINE
  8
F
 10
84.849
 11
79.099
 20
0.25
 21
6.0
  0
LINE
  8
F
 10
79.453
 11
85.203
 20
6.0
 21
0.25
  0
LINE
  8
F
 10
85.556
 11
79.806
 20
0.25
 21
6.0
  0
LINE
  8
F
 10
80.16
 11
85.91
 20
6.0
 21
0.25
  0
LINE
  8
F
 10
86.263
 11
80.513
 20
0.25
 21
6.0
  0
LINE
  8
F
 10
80.867
 11
86.617
 20
6.0
 21
0.25
  0
LINE
  8
F
 10
86.971
 11
81.221
 20
0.25
 21
6.0
  0
LINE
  8
F
 10
81.574
 11
87.324
 20
6.0
 21
0.25
  0
LINE
  8
F
 10
87.678
 11
81.928
 20
0.25
 21
6.0
  0
LINE
  8
F
 10
82.281
 11
88.031
 20
6.0
 21
0.25
  0
LINE
  8
F
 10
88.385
 11
82.635
 20
0.25
 21
6.0
  0
LINE
  8
F
 10
82.988
 11
88.738
 20
6.0
 21
0.25
  0
LINE
  8
F
 10
89.092
 11
83.342
 20
0.25
 21
6.0
  0
LINE
  8
F
 10
83.695
 11
89.445
 20
6.0
 21
0.25
  0
LINE
  8
F
 10
89.799
 11
84.049
 20
0.25
 21
6.0
  0
LINE
  8
F
 10
84.403
 11
90.153
 20
6.0
 21
0.25
  0
LINE
  8
F
 10
90.506
 11
84.756
 20
0.25
 21
6.0
  0
LINE
  8
F
 10
85.11
 11
90.86
 20
6.0
 21
0.25
  0
LINE
  8
F
 10
91.213
 11
85.463
 20
0.25
 21
6.0
  0
LINE
  8
F
 10
85.817
 11
91.567
 20
6.0
 21
0.25
  0
LINE
  8
F
 10
91.92
 11
86.17
 20
0.25
 21
6.0
  0
LINE
  8
F
 10
86.524
 11
92.274
 20
6.0
 21
0.25
  0
LINE
  8
F
 10
92.627
 11
86.877
 20
0.25
 21
6.0
  0
LINE
  8
F
 10
87.231
 11
92.981
 20
6.0
 21
0.25
  0
LINE
  8
F
 10
93.335
 11
87.585
 20
0.25
 21
6.0
  0
LINE
  8
F
 10
87.938
 11
93.688
 20
6.0
 21
0.25
  0
LINE
  8
F
 10
93.75
 11
88.292
 20
0.542
 21
6.0
  0
LINE
  8
F
 10
88.645
 11
93.75
 20
6.0
 21
0.895
  0
LINE
  8
F
 10
93.75
 11
88.999
 20
1.249
 21
6.0
  0
LINE
  8
F
 10
89.352
 11
93.75
 20
6.0
 21
1.602
  0
LINE
  8
F
 10
93.75
 11
89.706
 20
1.956
 21
6.0
  0
LINE
  8
F
 10
90.059
 11
93.75
 20
6.0
 21
2.309
  0
LINE
  8
F
 10
93.75
 11
90.413
 20
2.663
 21
6.0
  0
LINE
  8
F
 10
90.767
 11
93.75
 20
6.0
 21
3.017
  0
LINE
  8
F
 10
93.75
 11
91.12
 20
3.37
 21
6.0
  0
LINE
  8
F
 10
91.474
 11
93.75
 20
6.0
 21
3.724
  0
LINE
  8
F
 10
93.75
 11
91.827
 20
4.077
 21
6.0
  0
LINE
  8
F
 10
92.181
 11
93.75
 20
6.0
 21
4.431
  0
LINE
  8
F
 10
93.75
 11
92.534
 20
4.784
 21
6.0
  0
LINE
  8
F
 10
92.888
 11
93.75
 20
6.0
 21
5.138
  0
LINE
  8
F
 10
93.75
 11
93.241
 20
5.491
 21
6.0
  0
LINE
  8
F
 10
93.595
 11
93.75
 20
6.0
 21
5.845
  0
LINE
  8
F
 10
93.396
 11
93.75
 20
0.25
 21
0.604
  0
LINE
  8
F
 10
93.75
 11
93.043
 20
0.957
 21
0.25
  0
LINE
  8
F
 10
92.689
 11
93.75
 20
0.25
 21
1.311
  0
LINE
  8
F
 10
93.75
 11
92.336
 20
1.664
 21
0.25
  0
LINE
  8
F
 10
91.982
 11
93.75
 20
0.25
 21
2.018
  0
LINE
  8
F
 10
93.75
 11
91.629
 20
2.371
 21
0.25
  0
LINE
  8
F
 10
91.275
 11
93.75
 20
0.25
 21
2.725
  0
LINE
  8
F
 10
93.75
 11
90.922
 20
3.078
 21
0.25
  0
LINE
  8
F
 10
90.568
 11
93.75
 20
0.25
 21
3.432
  0
LINE
  8
F
 10
93.75
 11
90.214
 20
3.786
 21
0.25
  0
LINE
  8
F
 10
89.861
 11
93.75
 20
0.25
 21
4.139
  0
LINE
  8
F
 10
93.75
 11
89.507
 20
4.493
 21
0.25
  0
LINE
  8
F
 10
89.154
 11
93.75
 20
0.25
 21
4.846
  0
LINE
  8
F
 10
93.75
 11
88.8
 20
5.2
 21
0.25
  0
LINE
  8
F
 10
88.447
 11
93.75
 20
0.25
 21
5.553
  0
LINE
  8
F
 10
93.75
 11
88.093
 20
5.907
 21
0.25
  0
LINE
  8
F
 10
87.74
 11
93.49
 20
0.25
 21
6.0
  0
LINE
  8
F
 10
93.136
 11
87.386
 20
6.0
 21
0.25
  0
LINE
  8
F
 10
87.032
 11
92.782
 20
0.25
 21
6.0
  0
LINE
  8
F
 10
92.429
 11
86.679
 20
6.0
 21
0.25
  0
LINE
  8
F
 10
86.325
 11
92.075
 20
0.25
 21
6.0
  0
LINE
  8
F
 10
91.722
 11
85.972
 20
6.0
 21
0.25
  0
LINE
  8
F
 10
85.618
 11
91.368
 20
0.25
 21
6.0
  0
LINE
  8
F
 10
91.015
 11
85.265
 20
6.0
 21
0.25
  0
LINE
  8
F
 10
84.911
 11
90.661
 20
0.25
 21
6.0
  0
LINE
  8
F
 10
90.308
 11
84.558
 20
6.0
 21
0.25
  0
LINE
  8
F
 10
84.204
 11
89.954
 20
0.25
 21
6.0
  0
LINE
  8
F
 10
89.601
 11
83.851
 20
6.0
 21
0.25
  0
LINE
  8
F
 10
83.497
 11
89.247
 20
0.25
 21
6.0
  0
LINE
  8
F
 10
88.893
 11
83.143
 20
6.0
 21
0.25
  0
LINE
  8
F
 10
82.79
 11
88.54
 20
0.25
 21
6.0
  0
LINE
  8
F
 10
88.186
 11
82.436
 20
6.0
 21
0.25
  0
LINE
  8
F
 10
82.083
 11
87.833
 20
0.25
 21
6.0
  0
LINE
  8
F
 10
87.479
 11
81.729
 20
6.0
 21
0.25
  0
LINE
  8
F
 10
81.376
 11
87.126
 20
0.25
 21
6.0
  0
LINE
  8
F
 10
86.772
 11
81.022
 20
6.0
 21
0.25
  0
LINE
  8
F
 10
80.669
 11
86.419
 20
0.25
 21
6.0
  0
LINE
  8
F
 10
86.065
 11
80.315
 20
6.0
 21
0.25
  0
LINE
  8
F
 10
79.961
 11
85.711
 20
0.25
 21
6.0
  0
LINE
  8
F
 10
85.358
 11
79.608
 20
6.0
 21
0.25
  0
LINE
  8
F
 10
79.254
 11
85.004
 20
0.25
 21
6.0
  0
LINE
  8
F
 10
84.651
 11
78.901
 20
6.0
 21
0.25
  0
LINE
  8
F
 10
78.547
 11
84.297
 20
0.25
 21
6.0
  0
LINE
  8
F
 10
83.944
 11
78.194
 20
6.0
 21
0.25
  0
LINE
  8
F
 10
77.84
 11
83.59
 20
0.25
 21
6.0
  0
LINE
  8
F
 10
83.237
 11
77.487
 20
6.0
 21
0.25
  0
LINE
  8
F
 10
77.133
 11
82.883
 20
0.25
 21
6.0
  0
LINE
  8
F
 10
82.529
 11
76.779
 20
6.0
 21
0.25
  0
LINE
  8
F
 10
76.426
 11
82.176
 20
0.25
 21
6.0
  0
LINE
  8
F
 10
81.822
 11
76.072
 20
6.0
 21
0.25
  0
LINE
  8
F
 10
75.719
 11
81.469
 20
0.25
 21
6.0
  0
LINE
  8
F
 10
81.115
 11
75.365
 20
6.0
 21
0.25
  0
LINE
  8
F
 10
75.012
 11
80.762
 20
0.25
 21
6.0
  0
LINE
  8
F
 10
80.408
 11
74.658
 20
6.0
 21
0.25
  0
LINE
  8
F
 10
74.305
 11
80.055
 20
0.25
 21
6.0
  0
LINE
  8
F
 10
79.701
 11
73.951
 20
6.0
 21
0.25
  0
LINE
  8
F
 10
73.597
 11
79.347
 20
0.25
 21
6.0
  0
LINE
  8
F
 10
78.994
 11
73.244
 20
6.0
 21
0.25
  0
LINE
  8
F
 10
72.89
 11
78.64
 20
0.25
 21
6.0
  0
LINE
  8
F
 10
78.287
 11
72.537
 20
6.0
 21
0.25
  0
LINE
  8
F
 10
72.183
 11
77.933
 20
0.25
 21
6.0
  0
LINE
  8
F
 10
77.58
 11
71.83
 20
6.0
 21
0.25
  0
LINE
  8
F
 10
71.476
 11
77.226
 20
0.25
 21
6.0
  0
LINE
  8
F
 10
76.873
 11
71.123
 20
6.0
 21
0.25
  0
LINE
  8
F
 10
70.769
 11
76.519
 20
0.25
 21
6.0
  0
LINE
  8
F
 10
76.165
 11
70.415
 20
6.0
 21
0.25
  0
LINE
  8
F
 10
70.062
 11
75.812
 20
0.25
 21
6.0
  0
LINE
  8
F
 10
75.458
 11
70.0
 20
6.0
 21
0.542
  0
LINE
  8
F
 10
70.0
 11
75.105
 20
0.895
 21
6.0
  0
LINE
  8
F
 10
74.751
 11
70.0
 20
6.0
 21
1.249
  0
LINE
  8
F
 10
70.0
 11
74.398
 20
1.602
 21
6.0
  0
LINE
  8
F
 10
74.044
 11
70.0
 20
6.0
 21
1.956
  0
LINE
  8
F
 10
70.0
 11
73.691
 20
2.309
 21
6.0
  0
LINE
  8
F
 10
73.337
 11
70.0
 20
6.0
 21
2.663
  0
LINE
  8
F
 10
70.0
 11
72.983
 20
3.017
 21
6.0
  0
LINE
  8
F
 10
72.63
 11
70.0
 20
6.0
 21
3.37
  0
LINE
  8
F
 10
70.0
 11
72.276
 20
3.724
 21
6.0
  0
LINE
  8
F
 10
71.923
 11
70.0
 20
6.0
 21
4.077
  0
LINE
  8
F
 10
70.0
 11
71.569
 20
4.431
 21
6.0
  0
LINE
  8
F
 10
71.216
 11
70.0
 20
6.0
 21
4.784
  0
LINE
  8
F
 10
70.0
 11
70.862
 20
5.138
 21
6.0
  0
LINE
  8
F
 10
70.509
 11
70.0
 20
6.0
 21
5.491
  0
LINE
  8
F
 10
70.0
 11
70.155
 20
5.845
 21
6.0
  0
LINE
  8
DIMENSIONS
 10
70.0
 11
70.0
 20
-0.375
 21
-6.246
  0
LINE
  8
DIMENSIONS
 10
93.75
 11
93.75
 20
-0.375
 21
-6.246
  0
LINE
  8
DIMENSIONS
 10
70.0
 11
78.552
 20
-5.871
 21
-5.871
  0
LINE
  8
DIMENSIONS
 10
85.198
 11
93.75
 20
-5.871
 21
-5.871
  0
LINE
  8
DIMENSIONS
 10
71.25
 11
70.0
 20
-6.079
 21
-5.871
  0
LINE
  8
DIMENSIONS
 10
70.0
 11
71.25
 20
-5.871
 21
-5.663
  0
LINE
  8
DIMENSIONS
 10
71.25
 11
71.25
 20
-5.663
 21
-6.079
  0
LINE
  8
DIMENSIONS
 10
92.5
 11
93.75
 20
-5.663
 21
-5.871
  0
LINE
  8
DIMENSIONS
 10
93.75
 11
92.5
 20
-5.871
 21
-6.079
  0
LINE
  8
DIMENSIONS
 10
92.5
 11
92.5
 20
-6.079
 21
-5.663
  0
LINE
  8
DIMENSIONS
 10
68.938
 11
68.938
 20
5.625
 21
-13.755
  0
LINE
  8
DIMENSIONS
 10
94.813
 11
94.813
 20
5.625
 21
-13.755
  0
LINE
  8
DIMENSIONS
 10
68.938
 11
78.587
 20
-13.38
 21
-13.38
  0
LINE
  8
DIMENSIONS
 10
85.163
 11
94.813
 20
-13.38
 21
-13.38
  0
LINE
  8
DIMENSIONS
 10
70.188
 11
68.938
 20
-13.589
 21
-13.38
  0
LINE
  8
DIMENSIONS
 10
68.938
 11
70.188
 20
-13.38
 21
-13.172
  0
LINE
  8
DIMENSIONS
 10
70.188
 11
70.188
 20
-13.172
 21
-13.589
  0
LINE
  8
DIMENSIONS
 10
93.563
 11
94.813
 20
-13.172
 21
-13.38
  0
LINE
  8
DIMENSIONS
 10
94.813
 11
93.563
 20
-13.38
 21
-13.589
  0
LINE
  8
DIMENSIONS
 10
93.563
 11
93.563
 20
-13.589
 21
-13.172
  0
LINE
  8
DIMENSIONS
 10
69.0
 11
69.0
 20
65.095
 21
70.546
  0
LINE
  8
DIMENSIONS
 10
94.75
 11
94.75
 20
65.095
 21
70.546
  0
LINE
  8
DIMENSIONS
 10
69.0
 11
78.55
 20
70.171
 21
70.171
  0
LINE
  8
DIMENSIONS
 10
85.2
 11
94.75
 20
70.171
 21
70.171
  0
LINE
  8
DIMENSIONS
 10
70.25
 11
69.0
 20
69.963
 21
70.171
  0
LINE
  8
DIMENSIONS
 10
69.0
 11
70.25
 20
70.171
 21
70.38
  0
LINE
  8
DIMENSIONS
 10
70.25
 11
70.25
 20
70.38
 21
69.963
  0
LINE
  8
DIMENSIONS
 10
93.5
 11
94.75
 20
70.38
 21
70.171
  0
LINE
  8
DIMENSIONS
 10
94.75
 11
93.5
 20
70.171
 21
69.963
  0
LINE
  8
DIMENSIONS
 10
93.5
 11
93.5
 20
69.963
 21
70.38
  0
LINE
  8
DIMENSIONS
 10
69.313
 11
45.669
 20
65.5
 21
65.5
  0
LINE
  8
DIMENSIONS
 10
69.875
 11
45.669
 20
0.0
 21
0.0
  0
LINE
  8
DIMENSIONS
 10
46.044
 11
46.044
 20
65.5
 21
33.689
  0
LINE
  8
DIMENSIONS
 10
46.044
 11
46.044
 20
31.797
 21
0.0
  0
LINE
  8
DIMENSIONS
 10
45.835
 11
46.044
 20
64.25
 21
65.5
  0
LINE
  8
DIMENSIONS
 10
46.044
 11
46.252
 20
65.5
 21
64.25
  0
LINE
  8
DIMENSIONS
 10
46.252
 11
45.835
 20
64.25
 21
64.25
  0
LINE
  8
DIMENSIONS
 10
46.252
 11
46.044
 20
1.25
 21
0.0
  0
LINE
  8
DIMENSIONS
 10
46.044
 11
45.835
 20
0.0
 21
1.25
  0
LINE
  8
DIMENSIONS
 10
45.835
 11
46.252
 20
1.25
 21
1.25
  0
LINE
  8
DIMENSIONS
 10
69.625
 11
60.402
 20
0.0
 21
0.0
  0
LINE
  8
DIMENSIONS
 10
68.563
 11
60.402
 20
18.375
 21
18.375
  0
LINE
  8
DIMENSIONS
 10
60.777
 11
60.777
 20
0.0
 21
8.238
  0
LINE
  8
DIMENSIONS
 10
60.777
 11
60.777
 20
10.129
 21
18.375
  0
LINE
  8
DIMENSIONS
 10
60.985
 11
60.777
 20
1.25
 21
0.0
  0
LINE
  8
DIMENSIONS
 10
60.777
 11
60.568
 20
0.0
 21
1.25
  0
LINE
  8
DIMENSIONS
 10
60.568
 11
60.985
 20
1.25
 21
1.25
  0
LINE
  8
DIMENSIONS
 10
60.568
 11
60.777
 20
17.125
 21
18.375
  0
LINE
  8
DIMENSIONS
 10
60.777
 11
60.985
 20
18.375
 21
17.125
  0
LINE
  8
DIMENSIONS
 10
60.985
 11
60.568
 20
17.125
 21
17.125
  0
TEXT
  8
F
 10
7.649
 20
-5.065
 30
0.0
 40
1.25
 50
0.0
  1
21.000
  0
TEXT
  8
F
 10
5.362
 20
-11.982
 30
0.0
 40
1.25
 50
0.0
  1
25.750
  0
TEXT
  8
F
 10
0.912
 20
21.228
 30
0.0
 40
1.25
 50
0.0
  1
16.500
  0
TEXT
  8
F
 10
22.615
 20
67.16
 30
0.0
 40
1.25
 50
0.0
  1
6.500
  0
TEXT
  8
DIMENSIONS
 10
78.865
 20
-6.496
 30
0.0
 40
1.25
 50
0.0
  1
23.750
  0
TEXT
  8
DIMENSIONS
 10
78.899
 20
-14.005
 30
0.0
 40
1.25
 50
0.0
  1
25.875
  0
TEXT
  8
DIMENSIONS
 10
78.862
 20
69.546
 30
0.0
 40
1.25
 50
0.0
  1
25.750
  0
TEXT
  8
DIMENSIONS
 10
42.962
 20
32.125
 30
0.0
 40
1.25
 50
0.0
  1
65.500
  0
TEXT
  8
DIMENSIONS
 10
58.005
 20
8.563
 30
0.0
 40
1.25
 50
0.0
  1
18.375
  0
ENDSEC
  0
EOF
