  0
SECTION
  2
ENTITIES
  0
LINE
  8
F
 10
17.532
 11
21.25
 20
6.0
 21
6.0
  0
LINE
  8
F
 10
17.532
 11
14.75
 20
39.861
 21
39.861
  0
LINE
  8
F
 10
17.532
 11
14.75
 20
48.106
 21
48.106
  0
LINE
  8
F
 10
17.532
 11
14.75
 20
56.35
 21
56.35
  0
LINE
  8
F
 10
17.532
 11
13.854
 20
31.617
 21
31.617
  0
LINE
  8
F
 10
17.532
 11
12.731
 20
23.372
 21
23.372
  0
LINE
  8
F
 10
75.767
 11
125.642
 20
18.375
 21
18.375
  0
LINE
  8
F
 10
75.767
 11
125.642
 20
5.875
 21
5.875
  0
LINE
  8
F
 10
76.829
 11
124.579
 20
0.25
 21
0.25
  0
LINE
  8
F
 10
76.642
 11
124.767
 20
64.595
 21
64.595
  0
LINE
  8
F
 10
75.767
 11
75.767
 20
18.375
 21
5.875
  0
LINE
  8
F
 10
125.642
 11
125.642
 20
18.375
 21
5.875
  0
LINE
  8
F
 10
14.75
 11
14.75
 20
39.861
 21
64.472
  0
LINE
  8
F
 10
14.75
 11
17.532
 20
64.472
 21
64.472
  0
LINE
  8
F
 10
17.532
 11
21.25
 20
64.472
 21
64.472
  0
LINE
  8
F
 10
21.0
 11
0.0
 20
0.25
 21
0.25
  0
LINE
  8
F
 10
21.25
 11
17.532
 20
6.0
 21
6.0
  0
LINE
  8
F
 10
17.532
 11
17.532
 20
6.0
 21
64.472
  0
LINE
  8
F
 10
21.0
 11
21.0
 20
0.25
 21
6.0
  0
LINE
  8
F
 10
0.0
 11
0.0
 20
0.25
 21
5.875
  0
LINE
  8
F
 10
21.25
 11
17.532
 20
65.5
 21
65.5
  0
LINE
  8
F
 10
21.25
 11
17.532
 20
64.472
 21
64.472
  0
LINE
  8
F
 10
17.532
 11
17.532
 20
64.472
 21
65.5
  0
LINE
  8
F
 10
21.25
 11
21.25
 20
64.472
 21
6.0
  0
LINE
  8
F
 10
21.25
 11
21.25
 20
64.472
 21
65.5
  0
LINE
  8
F
 10
76.517
 11
124.892
 20
64.595
 21
64.595
  0
LINE
  8
F
 10
124.892
 11
124.892
 20
64.595
 21
56.35
  0
LINE
  8
F
 10
124.892
 11
76.517
 20
56.35
 21
56.35
  0
LINE
  8
F
 10
76.517
 11
76.517
 20
56.35
 21
64.595
  0
LINE
  8
F
 10
76.517
 11
124.892
 20
56.35
 21
56.35
  0
LINE
  8
F
 10
124.892
 11
124.892
 20
56.35
 21
48.106
  0
LINE
  8
F
 10
124.892
 11
76.517
 20
48.106
 21
48.106
  0
LINE
  8
F
 10
76.517
 11
76.517
 20
48.106
 21
56.35
  0
LINE
  8
F
 10
76.517
 11
124.892
 20
48.106
 21
48.106
  0
LINE
  8
F
 10
124.892
 11
124.892
 20
48.106
 21
39.861
  0
LINE
  8
F
 10
124.892
 11
76.517
 20
39.861
 21
39.861
  0
LINE
  8
F
 10
76.517
 11
76.517
 20
39.861
 21
48.106
  0
LINE
  8
F
 10
76.517
 11
124.892
 20
39.861
 21
39.861
  0
LINE
  8
F
 10
124.892
 11
124.892
 20
39.861
 21
31.617
  0
LINE
  8
F
 10
124.892
 11
76.517
 20
31.617
 21
31.617
  0
LINE
  8
F
 10
76.517
 11
76.517
 20
31.617
 21
39.861
  0
LINE
  8
F
 10
76.517
 11
124.892
 20
31.617
 21
31.617
  0
LINE
  8
F
 10
124.892
 11
124.892
 20
31.617
 21
23.372
  0
LINE
  8
F
 10
124.892
 11
76.517
 20
23.372
 21
23.372
  0
LINE
  8
F
 10
76.517
 11
76.517
 20
23.372
 21
31.617
  0
LINE
  8
F
 10
0.0
 11
0.5
 20
0.25
 21
0.25
  0
LINE
  8
F
 10
0.5
 11
0.5
 20
0.25
 21
0.0
  0
LINE
  8
F
 10
0.5
 11
0.0
 20
0.0
 21
0.0
  0
LINE
  8
F
 10
0.0
 11
0.0
 20
0.0
 21
0.25
  0
LINE
  8
F
 10
20.5
 11
21.0
 20
0.25
 21
0.25
  0
LINE
  8
F
 10
21.0
 11
21.0
 20
0.25
 21
0.0
  0
LINE
  8
F
 10
21.0
 11
20.5
 20
0.0
 21
0.0
  0
LINE
  8
F
 10
20.5
 11
20.5
 20
0.0
 21
0.25
  0
LINE
  8
F
 10
125.579
 11
125.579
 20
64.595
 21
18.375
  0
LINE
  8
F
 10
75.829
 11
75.829
 20
64.595
 21
18.375
  0
LINE
  8
F
 10
76.517
 11
124.892
 20
65.5
 21
65.5
  0
LINE
  8
F
 10
124.892
 11
124.892
 20
65.5
 21
64.595
  0
LINE
  8
F
 10
125.579
 11
75.829
 20
64.595
 21
64.595
  0
LINE
  8
F
 10
76.517
 11
76.517
 20
64.595
 21
65.5
  0
LINE
  8
F
 10
124.579
 11
124.579
 20
5.875
 21
0.25
  0
LINE
  8
F
 10
76.829
 11
76.829
 20
5.875
 21
0.25
  0
LINE
  8
F
 10
17.532
 11
-1.325
 20
5.875
 21
5.875
  0
LINE
  8
F
 10
-1.325
 11
-4.5
 20
5.875
 21
18.375
  0
LINE
  8
F
 10
-4.5
 11
17.532
 20
18.375
 21
18.375
  0
LINE
  8
F
 10
17.532
 11
17.532
 20
18.375
 21
5.875
  0
ARC
  8
F
 10
-345.285
 20
75.022
 40
361.747
 50
350.991
 51
354.422
  0
LINE
  8
F
 10
76.517
 11
124.892
 20
23.372
 21
23.372
  0
LINE
  8
F
 10
124.892
 11
124.892
 20
23.372
 21
18.375
  0
LINE
  8
F
 10
76.517
 11
76.517
 20
18.375
 21
23.372
  0
LINE
  8
F
 10
14.75
 11
14.75
 20
64.847
 21
68.16
  0
LINE
  8
F
 10
21.25
 11
21.25
 20
65.875
 21
68.16
  0
LINE
  8
F
 10
14.75
 11
22.315
 20
67.785
 21
67.785
  0
LINE
  8
F
 10
16.0
 11
14.75
 20
67.576
 21
67.785
  0
LINE
  8
F
 10
14.75
 11
16.0
 20
67.785
 21
67.993
  0
LINE
  8
F
 10
16.0
 11
16.0
 20
67.993
 21
67.576
  0
LINE
  8
F
 10
20.0
 11
21.25
 20
67.993
 21
67.785
  0
LINE
  8
F
 10
21.25
 11
20.0
 20
67.785
 21
67.576
  0
LINE
  8
F
 10
20.0
 11
20.0
 20
67.576
 21
67.993
  0
LINE
  8
F
 10
-4.5
 11
-4.5
 20
18.75
 21
22.228
  0
LINE
  8
F
 10
12.0
 11
12.0
 20
18.75
 21
22.228
  0
LINE
  8
F
 10
-4.5
 11
0.6
 20
21.853
 21
21.853
  0
LINE
  8
F
 10
6.9
 11
12.0
 20
21.853
 21
21.853
  0
LINE
  8
F
 10
-3.25
 11
-4.5
 20
21.645
 21
21.853
  0
LINE
  8
F
 10
-4.5
 11
-3.25
 20
21.853
 21
22.061
  0
LINE
  8
F
 10
-3.25
 11
-3.25
 20
22.061
 21
21.645
  0
LINE
  8
F
 10
10.75
 11
12.0
 20
22.061
 21
21.853
  0
LINE
  8
F
 10
12.0
 11
10.75
 20
21.853
 21
21.645
  0
LINE
  8
F
 10
10.75
 11
10.75
 20
21.645
 21
22.061
  0
LINE
  8
F
 10
76.829
 11
77.329
 20
0.25
 21
0.25
  0
LINE
  8
F
 10
77.329
 11
77.329
 20
0.25
 21
0.0
  0
LINE
  8
F
 10
77.329
 11
76.829
 20
0.0
 21
0.0
  0
LINE
  8
F
 10
76.829
 11
76.829
 20
0.0
 21
0.25
  0
LINE
  8
F
 10
124.079
 11
124.579
 20
0.25
 21
0.25
  0
LINE
  8
F
 10
124.579
 11
124.579
 20
0.25
 21
0.0
  0
LINE
  8
F
 10
124.579
 11
124.079
 20
0.0
 21
0.0
  0
LINE
  8
F
 10
124.079
 11
124.079
 20
0.0
 21
0.25
  0
LINE
  8
F
 10
-4.5
 11
-4.5
 20
18.0
 21
-11.732
  0
LINE
  8
F
 10
21.25
 11
21.25
 20
5.625
 21
-11.732
  0
LINE
  8
F
 10
-4.5
 11
5.05
 20
-11.357
 21
-11.357
  0
LINE
  8
F
 10
11.7
 11
21.25
 20
-11.357
 21
-11.357
  0
LINE
  8
F
 10
-3.25
 11
-4.5
 20
-11.565
 21
-11.357
  0
LINE
  8
F
 10
-4.5
 11
-3.25
 20
-11.357
 21
-11.148
  0
LINE
  8
F
 10
-3.25
 11
-3.25
 20
-11.148
 21
-11.565
  0
LINE
  8
F
 10
20.0
 11
21.25
 20
-11.148
 21
-11.357
  0
LINE
  8
F
 10
21.25
 11
20.0
 20
-11.357
 21
-11.565
  0
LINE
  8
F
 10
20.0
 11
20.0
 20
-11.565
 21
-11.148
  0
LINE
  8
F
 10
0.0
 11
0.0
 20
-0.125
 21
-4.815
  0
LINE
  8
F
 10
21.0
 11
21.0
 20
-0.125
 21
-4.815
  0
LINE
  8
F
 10
0.0
 11
7.336
 20
-4.44
 21
-4.44
  0
LINE
  8
F
 10
13.664
 11
21.0
 20
-4.44
 21
-4.44
  0
LINE
  8
F
 10
1.25
 11
0.0
 20
-4.649
 21
-4.44
  0
LINE
  8
F
 10
0.0
 11
1.25
 20
-4.44
 21
-4.232
  0
LINE
  8
F
 10
1.25
 11
1.25
 20
-4.232
 21
-4.649
  0
LINE
  8
F
 10
19.75
 11
21.0
 20
-4.232
 21
-4.44
  0
LINE
  8
F
 10
21.0
 11
19.75
 20
-4.44
 21
-4.649
  0
LINE
  8
F
 10
19.75
 11
19.75
 20
-4.649
 21
-4.232
  0
LINE
  8
F
 10
76.829
 11
76.829
 20
-0.375
 21
-8.665
  0
LINE
  8
F
 10
124.579
 11
124.579
 20
-0.375
 21
-8.665
  0
LINE
  8
F
 10
76.829
 11
97.294
 20
-8.29
 21
-8.29
  0
LINE
  8
F
 10
104.115
 11
124.579
 20
-8.29
 21
-8.29
  0
LINE
  8
F
 10
78.079
 11
76.829
 20
-8.499
 21
-8.29
  0
LINE
  8
F
 10
76.829
 11
78.079
 20
-8.29
 21
-8.082
  0
LINE
  8
F
 10
78.079
 11
78.079
 20
-8.082
 21
-8.499
  0
LINE
  8
F
 10
123.329
 11
124.579
 20
-8.082
 21
-8.29
  0
LINE
  8
F
 10
124.579
 11
123.329
 20
-8.29
 21
-8.499
  0
LINE
  8
F
 10
123.329
 11
123.329
 20
-8.499
 21
-8.082
  0
LINE
  8
F
 10
75.767
 11
75.767
 20
5.5
 21
-15.989
  0
LINE
  8
F
 10
125.642
 11
125.642
 20
5.5
 21
-15.989
  0
LINE
  8
F
 10
75.767
 11
97.341
 20
-15.614
 21
-15.614
  0
LINE
  8
F
 10
104.068
 11
125.642
 20
-15.614
 21
-15.614
  0
LINE
  8
F
 10
77.017
 11
75.767
 20
-15.822
 21
-15.614
  0
LINE
  8
F
 10
75.767
 11
77.017
 20
-15.614
 21
-15.405
  0
LINE
  8
F
 10
77.017
 11
77.017
 20
-15.405
 21
-15.822
  0
LINE
  8
F
 10
124.392
 11
125.642
 20
-15.405
 21
-15.614
  0
LINE
  8
F
 10
125.642
 11
124.392
 20
-15.614
 21
-15.822
  0
LINE
  8
F
 10
124.392
 11
124.392
 20
-15.822
 21
-15.405
  0
LINE
  8
F
 10
75.829
 11
75.829
 20
64.97
 21
72.222
  0
LINE
  8
F
 10
125.579
 11
125.579
 20
64.97
 21
72.222
  0
LINE
  8
F
 10
75.829
 11
97.304
 20
71.847
 21
71.847
  0
LINE
  8
F
 10
104.105
 11
125.579
 20
71.847
 21
71.847
  0
LINE
  8
F
 10
77.079
 11
75.829
 20
71.639
 21
71.847
  0
LINE
  8
F
 10
75.829
 11
77.079
 20
71.847
 21
72.056
  0
LINE
  8
F
 10
77.079
 11
77.079
 20
72.056
 21
71.639
  0
LINE
  8
F
 10
124.329
 11
125.579
 20
72.056
 21
71.847
  0
LINE
  8
F
 10
125.579
 11
124.329
 20
71.847
 21
71.639
  0
LINE
  8
F
 10
124.329
 11
124.329
 20
71.639
 21
72.056
  0
LINE
  8
F
 10
76.142
 11
50.38
 20
65.5
 21
65.5
  0
LINE
  8
F
 10
76.704
 11
50.38
 20
0.0
 21
0.0
  0
LINE
  8
F
 10
50.755
 11
50.755
 20
65.5
 21
33.689
  0
LINE
  8
F
 10
50.755
 11
50.755
 20
31.797
 21
0.0
  0
LINE
  8
F
 10
50.547
 11
50.755
 20
64.25
 21
65.5
  0
LINE
  8
F
 10
50.755
 11
50.964
 20
65.5
 21
64.25
  0
LINE
  8
F
 10
50.964
 11
50.547
 20
64.25
 21
64.25
  0
LINE
  8
F
 10
50.964
 11
50.755
 20
1.25
 21
0.0
  0
LINE
  8
F
 10
50.755
 11
50.547
 20
0.0
 21
1.25
  0
LINE
  8
F
 10
50.547
 11
50.964
 20
1.25
 21
1.25
  0
LINE
  8
F
 10
75.392
 11
65.374
 20
18.375
 21
18.375
  0
LINE
  8
F
 10
76.954
 11
65.374
 20
0.0
 21
0.0
  0
LINE
  8
F
 10
65.749
 11
65.749
 20
18.375
 21
10.129
  0
LINE
  8
F
 10
65.749
 11
65.749
 20
8.238
 21
0.0
  0
LINE
  8
F
 10
65.541
 11
65.749
 20
17.125
 21
18.375
  0
LINE
  8
F
 10
65.749
 11
65.958
 20
18.375
 21
17.125
  0
LINE
  8
F
 10
65.958
 11
65.541
 20
17.125
 21
17.125
  0
LINE
  8
F
 10
65.958
 11
65.749
 20
1.25
 21
0.0
  0
LINE
  8
F
 10
65.749
 11
65.541
 20
0.0
 21
1.25
  0
LINE
  8
F
 10
65.541
 11
65.958
 20
1.25
 21
1.25
  0
LINE
  8
F
 10
0.0
 11
0.354
 20
0.604
 21
0.25
  0
LINE
  8
F
 10
0.707
 11
0.0
 20
0.25
 21
0.957
  0
LINE
  8
F
 10
0.0
 11
1.061
 20
1.311
 21
0.25
  0
LINE
  8
F
 10
1.414
 11
0.0
 20
0.25
 21
1.664
  0
LINE
  8
F
 10
0.0
 11
1.768
 20
2.018
 21
0.25
  0
LINE
  8
F
 10
2.121
 11
0.0
 20
0.25
 21
2.371
  0
LINE
  8
F
 10
0.0
 11
2.475
 20
2.725
 21
0.25
  0
LINE
  8
F
 10
2.828
 11
0.0
 20
0.25
 21
3.078
  0
LINE
  8
F
 10
0.0
 11
3.182
 20
3.432
 21
0.25
  0
LINE
  8
F
 10
3.536
 11
0.0
 20
0.25
 21
3.786
  0
LINE
  8
F
 10
0.0
 11
3.889
 20
4.139
 21
0.25
  0
LINE
  8
F
 10
4.243
 11
0.0
 20
0.25
 21
4.493
  0
LINE
  8
F
 10
0.0
 11
4.596
 20
4.846
 21
0.25
  0
LINE
  8
F
 10
4.95
 11
0.0
 20
0.25
 21
5.2
  0
LINE
  8
F
 10
0.0
 11
5.303
 20
5.553
 21
0.25
  0
LINE
  8
F
 10
5.657
 11
0.032
 20
0.25
 21
5.875
  0
LINE
  8
F
 10
0.385
 11
6.01
 20
5.875
 21
0.25
  0
LINE
  8
F
 10
6.364
 11
0.739
 20
0.25
 21
5.875
  0
LINE
  8
F
 10
1.093
 11
6.718
 20
5.875
 21
0.25
  0
LINE
  8
F
 10
7.071
 11
1.446
 20
0.25
 21
5.875
  0
LINE
  8
F
 10
1.8
 11
7.425
 20
5.875
 21
0.25
  0
LINE
  8
F
 10
7.778
 11
2.153
 20
0.25
 21
5.875
  0
LINE
  8
F
 10
2.507
 11
8.132
 20
5.875
 21
0.25
  0
LINE
  8
F
 10
8.485
 11
2.86
 20
0.25
 21
5.875
  0
LINE
  8
F
 10
3.214
 11
8.839
 20
5.875
 21
0.25
  0
LINE
  8
F
 10
9.192
 11
3.567
 20
0.25
 21
5.875
  0
LINE
  8
F
 10
3.921
 11
9.546
 20
5.875
 21
0.25
  0
LINE
  8
F
 10
9.899
 11
4.275
 20
0.25
 21
5.875
  0
LINE
  8
F
 10
4.628
 11
10.253
 20
5.875
 21
0.25
  0
LINE
  8
F
 10
10.607
 11
4.982
 20
0.25
 21
5.875
  0
LINE
  8
F
 10
5.335
 11
10.96
 20
5.875
 21
0.25
  0
LINE
  8
F
 10
11.314
 11
5.689
 20
0.25
 21
5.875
  0
LINE
  8
F
 10
6.042
 11
11.667
 20
5.875
 21
0.25
  0
LINE
  8
F
 10
12.021
 11
6.396
 20
0.25
 21
5.875
  0
LINE
  8
F
 10
6.749
 11
12.374
 20
5.875
 21
0.25
  0
LINE
  8
F
 10
12.728
 11
7.103
 20
0.25
 21
5.875
  0
LINE
  8
F
 10
7.456
 11
13.081
 20
5.875
 21
0.25
  0
LINE
  8
F
 10
13.435
 11
7.81
 20
0.25
 21
5.875
  0
LINE
  8
F
 10
8.164
 11
13.789
 20
5.875
 21
0.25
  0
LINE
  8
F
 10
14.142
 11
8.517
 20
0.25
 21
5.875
  0
LINE
  8
F
 10
8.871
 11
14.496
 20
5.875
 21
0.25
  0
LINE
  8
F
 10
14.849
 11
9.224
 20
0.25
 21
5.875
  0
LINE
  8
F
 10
9.578
 11
15.203
 20
5.875
 21
0.25
  0
LINE
  8
F
 10
15.556
 11
9.931
 20
0.25
 21
5.875
  0
LINE
  8
F
 10
10.285
 11
15.91
 20
5.875
 21
0.25
  0
LINE
  8
F
 10
16.263
 11
10.638
 20
0.25
 21
5.875
  0
LINE
  8
F
 10
10.992
 11
16.617
 20
5.875
 21
0.25
  0
LINE
  8
F
 10
16.971
 11
11.346
 20
0.25
 21
5.875
  0
LINE
  8
F
 10
11.699
 11
17.324
 20
5.875
 21
0.25
  0
LINE
  8
F
 10
17.678
 11
12.053
 20
0.25
 21
5.875
  0
LINE
  8
F
 10
12.406
 11
18.031
 20
5.875
 21
0.25
  0
LINE
  8
F
 10
18.385
 11
12.76
 20
0.25
 21
5.875
  0
LINE
  8
F
 10
13.113
 11
18.738
 20
5.875
 21
0.25
  0
LINE
  8
F
 10
19.092
 11
13.467
 20
0.25
 21
5.875
  0
LINE
  8
F
 10
13.82
 11
19.445
 20
5.875
 21
0.25
  0
LINE
  8
F
 10
19.799
 11
14.174
 20
0.25
 21
5.875
  0
LINE
  8
F
 10
14.528
 11
20.153
 20
5.875
 21
0.25
  0
LINE
  8
F
 10
20.506
 11
14.881
 20
0.25
 21
5.875
  0
LINE
  8
F
 10
15.235
 11
20.86
 20
5.875
 21
0.25
  0
LINE
  8
F
 10
21.0
 11
15.588
 20
0.463
 21
5.875
  0
LINE
  8
F
 10
15.942
 11
21.0
 20
5.875
 21
0.817
  0
LINE
  8
F
 10
21.0
 11
16.295
 20
1.17
 21
5.875
  0
LINE
  8
F
 10
16.649
 11
21.0
 20
5.875
 21
1.524
  0
LINE
  8
F
 10
21.0
 11
17.002
 20
1.877
 21
5.875
  0
LINE
  8
F
 10
17.356
 11
21.0
 20
5.875
 21
2.231
  0
LINE
  8
F
 10
21.0
 11
17.585
 20
2.585
 21
6.0
  0
LINE
  8
F
 10
17.938
 11
21.0
 20
6.0
 21
2.938
  0
LINE
  8
F
 10
21.0
 11
18.292
 20
3.292
 21
6.0
  0
LINE
  8
F
 10
18.645
 11
21.0
 20
6.0
 21
3.645
  0
LINE
  8
F
 10
21.0
 11
18.999
 20
3.999
 21
6.0
  0
LINE
  8
F
 10
19.352
 11
21.0
 20
6.0
 21
4.352
  0
LINE
  8
F
 10
21.0
 11
19.706
 20
4.706
 21
6.0
  0
LINE
  8
F
 10
20.059
 11
21.0
 20
6.0
 21
5.059
  0
LINE
  8
F
 10
21.0
 11
20.413
 20
5.413
 21
6.0
  0
LINE
  8
F
 10
20.767
 11
21.0
 20
6.0
 21
5.767
  0
LINE
  8
F
 10
20.646
 11
21.0
 20
0.25
 21
0.604
  0
LINE
  8
F
 10
21.0
 11
20.293
 20
0.957
 21
0.25
  0
LINE
  8
F
 10
19.939
 11
21.0
 20
0.25
 21
1.311
  0
LINE
  8
F
 10
21.0
 11
19.586
 20
1.664
 21
0.25
  0
LINE
  8
F
 10
19.232
 11
21.0
 20
0.25
 21
2.018
  0
LINE
  8
F
 10
21.0
 11
18.879
 20
2.371
 21
0.25
  0
LINE
  8
F
 10
18.525
 11
21.0
 20
0.25
 21
2.725
  0
LINE
  8
F
 10
21.0
 11
18.172
 20
3.078
 21
0.25
  0
LINE
  8
F
 10
17.818
 11
21.0
 20
0.25
 21
3.432
  0
LINE
  8
F
 10
21.0
 11
17.464
 20
3.786
 21
0.25
  0
LINE
  8
F
 10
17.111
 11
21.0
 20
0.25
 21
4.139
  0
LINE
  8
F
 10
21.0
 11
16.757
 20
4.493
 21
0.25
  0
LINE
  8
F
 10
16.404
 11
21.0
 20
0.25
 21
4.846
  0
LINE
  8
F
 10
21.0
 11
16.05
 20
5.2
 21
0.25
  0
LINE
  8
F
 10
15.697
 11
21.0
 20
0.25
 21
5.553
  0
LINE
  8
F
 10
21.0
 11
15.343
 20
5.907
 21
0.25
  0
LINE
  8
F
 10
14.99
 11
20.739
 20
0.25
 21
6.0
  0
LINE
  8
F
 10
20.386
 11
14.636
 20
6.0
 21
0.25
  0
LINE
  8
F
 10
14.282
 11
20.032
 20
0.25
 21
6.0
  0
LINE
  8
F
 10
19.679
 11
13.929
 20
6.0
 21
0.25
  0
LINE
  8
F
 10
13.575
 11
19.325
 20
0.25
 21
6.0
  0
LINE
  8
F
 10
18.972
 11
13.222
 20
6.0
 21
0.25
  0
LINE
  8
F
 10
12.868
 11
18.618
 20
0.25
 21
6.0
  0
LINE
  8
F
 10
18.265
 11
12.515
 20
6.0
 21
0.25
  0
LINE
  8
F
 10
12.161
 11
17.911
 20
0.25
 21
6.0
  0
LINE
  8
F
 10
17.433
 11
11.808
 20
5.875
 21
0.25
  0
LINE
  8
F
 10
11.454
 11
17.079
 20
0.25
 21
5.875
  0
LINE
  8
F
 10
16.725
 11
11.101
 20
5.875
 21
0.25
  0
LINE
  8
F
 10
10.747
 11
16.372
 20
0.25
 21
5.875
  0
LINE
  8
F
 10
16.018
 11
10.393
 20
5.875
 21
0.25
  0
LINE
  8
F
 10
10.04
 11
15.665
 20
0.25
 21
5.875
  0
LINE
  8
F
 10
15.311
 11
9.686
 20
5.875
 21
0.25
  0
LINE
  8
F
 10
9.333
 11
14.958
 20
0.25
 21
5.875
  0
LINE
  8
F
 10
14.604
 11
8.979
 20
5.875
 21
0.25
  0
LINE
  8
F
 10
8.626
 11
14.251
 20
0.25
 21
5.875
  0
LINE
  8
F
 10
13.897
 11
8.272
 20
5.875
 21
0.25
  0
LINE
  8
F
 10
7.919
 11
13.544
 20
0.25
 21
5.875
  0
LINE
  8
F
 10
13.19
 11
7.565
 20
5.875
 21
0.25
  0
LINE
  8
F
 10
7.211
 11
12.836
 20
0.25
 21
5.875
  0
LINE
  8
F
 10
12.483
 11
6.858
 20
5.875
 21
0.25
  0
LINE
  8
F
 10
6.504
 11
12.129
 20
0.25
 21
5.875
  0
LINE
  8
F
 10
11.776
 11
6.151
 20
5.875
 21
0.25
  0
LINE
  8
F
 10
5.797
 11
11.422
 20
0.25
 21
5.875
  0
LINE
  8
F
 10
11.069
 11
5.444
 20
5.875
 21
0.25
  0
LINE
  8
F
 10
5.09
 11
10.715
 20
0.25
 21
5.875
  0
LINE
  8
F
 10
10.362
 11
4.737
 20
5.875
 21
0.25
  0
LINE
  8
F
 10
4.383
 11
10.008
 20
0.25
 21
5.875
  0
LINE
  8
F
 10
9.654
 11
4.029
 20
5.875
 21
0.25
  0
LINE
  8
F
 10
3.676
 11
9.301
 20
0.25
 21
5.875
  0
LINE
  8
F
 10
8.947
 11
3.322
 20
5.875
 21
0.25
  0
LINE
  8
F
 10
2.969
 11
8.594
 20
0.25
 21
5.875
  0
LINE
  8
F
 10
8.24
 11
2.615
 20
5.875
 21
0.25
  0
LINE
  8
F
 10
2.262
 11
7.887
 20
0.25
 21
5.875
  0
LINE
  8
F
 10
7.533
 11
1.908
 20
5.875
 21
0.25
  0
LINE
  8
F
 10
1.555
 11
7.18
 20
0.25
 21
5.875
  0
LINE
  8
F
 10
6.826
 11
1.201
 20
5.875
 21
0.25
  0
LINE
  8
F
 10
0.847
 11
6.472
 20
0.25
 21
5.875
  0
LINE
  8
F
 10
6.119
 11
0.494
 20
5.875
 21
0.25
  0
LINE
  8
F
 10
0.14
 11
5.765
 20
0.25
 21
5.875
  0
LINE
  8
F
 10
5.412
 11
0.0
 20
5.875
 21
0.463
  0
LINE
  8
F
 10
0.0
 11
5.058
 20
0.817
 21
5.875
  0
LINE
  8
F
 10
4.705
 11
0.0
 20
5.875
 21
1.17
  0
LINE
  8
F
 10
0.0
 11
4.351
 20
1.524
 21
5.875
  0
LINE
  8
F
 10
3.998
 11
0.0
 20
5.875
 21
1.877
  0
LINE
  8
F
 10
0.0
 11
3.644
 20
2.231
 21
5.875
  0
LINE
  8
F
 10
3.29
 11
0.0
 20
5.875
 21
2.585
  0
LINE
  8
F
 10
0.0
 11
2.937
 20
2.938
 21
5.875
  0
LINE
  8
F
 10
2.583
 11
0.0
 20
5.875
 21
3.292
  0
LINE
  8
F
 10
0.0
 11
2.23
 20
3.645
 21
5.875
  0
LINE
  8
F
 10
1.876
 11
0.0
 20
5.875
 21
3.999
  0
LINE
  8
F
 10
0.0
 11
1.523
 20
4.352
 21
5.875
  0
LINE
  8
F
 10
1.169
 11
0.0
 20
5.875
 21
4.706
  0
LINE
  8
F
 10
0.0
 11
0.816
 20
5.059
 21
5.875
  0
LINE
  8
F
 10
0.462
 11
0.0
 20
5.875
 21
5.413
  0
LINE
  8
F
 10
0.0
 11
0.108
 20
5.767
 21
5.875
  0
LINE
  8
F
 10
124.226
 11
124.579
 20
0.25
 21
0.604
  0
LINE
  8
F
 10
124.579
 11
123.872
 20
0.957
 21
0.25
  0
LINE
  8
F
 10
123.519
 11
124.579
 20
0.25
 21
1.311
  0
LINE
  8
F
 10
124.579
 11
123.165
 20
1.664
 21
0.25
  0
LINE
  8
F
 10
122.812
 11
124.579
 20
0.25
 21
2.018
  0
LINE
  8
F
 10
124.579
 11
122.458
 20
2.371
 21
0.25
  0
LINE
  8
F
 10
122.105
 11
124.579
 20
0.25
 21
2.725
  0
LINE
  8
F
 10
124.579
 11
121.751
 20
3.078
 21
0.25
  0
LINE
  8
F
 10
121.397
 11
124.579
 20
0.25
 21
3.432
  0
LINE
  8
F
 10
124.579
 11
121.044
 20
3.785
 21
0.25
  0
LINE
  8
F
 10
120.69
 11
124.579
 20
0.25
 21
4.139
  0
LINE
  8
F
 10
124.579
 11
120.337
 20
4.493
 21
0.25
  0
LINE
  8
F
 10
119.983
 11
124.579
 20
0.25
 21
4.846
  0
LINE
  8
F
 10
124.579
 11
119.63
 20
5.2
 21
0.25
  0
LINE
  8
F
 10
119.276
 11
124.579
 20
0.25
 21
5.553
  0
LINE
  8
F
 10
124.547
 11
118.923
 20
5.875
 21
0.25
  0
LINE
  8
F
 10
118.569
 11
124.194
 20
0.25
 21
5.875
  0
LINE
  8
F
 10
123.84
 11
118.215
 20
5.875
 21
0.25
  0
LINE
  8
F
 10
117.862
 11
123.487
 20
0.25
 21
5.875
  0
LINE
  8
F
 10
123.133
 11
117.508
 20
5.875
 21
0.25
  0
LINE
  8
F
 10
117.155
 11
122.78
 20
0.25
 21
5.875
  0
LINE
  8
F
 10
122.426
 11
116.801
 20
5.875
 21
0.25
  0
LINE
  8
F
 10
116.448
 11
122.073
 20
0.25
 21
5.875
  0
LINE
  8
F
 10
121.719
 11
116.094
 20
5.875
 21
0.25
  0
LINE
  8
F
 10
115.741
 11
121.365
 20
0.25
 21
5.875
  0
LINE
  8
F
 10
121.012
 11
115.387
 20
5.875
 21
0.25
  0
LINE
  8
F
 10
115.033
 11
120.658
 20
0.25
 21
5.875
  0
LINE
  8
F
 10
120.305
 11
114.68
 20
5.875
 21
0.25
  0
LINE
  8
F
 10
114.326
 11
119.951
 20
0.25
 21
5.875
  0
LINE
  8
F
 10
119.598
 11
113.973
 20
5.875
 21
0.25
  0
LINE
  8
F
 10
113.619
 11
119.244
 20
0.25
 21
5.875
  0
LINE
  8
F
 10
118.891
 11
113.266
 20
5.875
 21
0.25
  0
LINE
  8
F
 10
112.912
 11
118.537
 20
0.25
 21
5.875
  0
LINE
  8
F
 10
118.183
 11
112.559
 20
5.875
 21
0.25
  0
LINE
  8
F
 10
112.205
 11
117.83
 20
0.25
 21
5.875
  0
LINE
  8
F
 10
117.476
 11
111.851
 20
5.875
 21
0.25
  0
LINE
  8
F
 10
111.498
 11
117.123
 20
0.25
 21
5.875
  0
LINE
  8
F
 10
116.769
 11
111.144
 20
5.875
 21
0.25
  0
LINE
  8
F
 10
110.791
 11
116.416
 20
0.25
 21
5.875
  0
LINE
  8
F
 10
116.062
 11
110.437
 20
5.875
 21
0.25
  0
LINE
  8
F
 10
110.084
 11
115.709
 20
0.25
 21
5.875
  0
LINE
  8
F
 10
115.355
 11
109.73
 20
5.875
 21
0.25
  0
LINE
  8
F
 10
109.377
 11
115.001
 20
0.25
 21
5.875
  0
LINE
  8
F
 10
114.648
 11
109.023
 20
5.875
 21
0.25
  0
LINE
  8
F
 10
108.669
 11
114.294
 20
0.25
 21
5.875
  0
LINE
  8
F
 10
113.941
 11
108.316
 20
5.875
 21
0.25
  0
LINE
  8
F
 10
107.962
 11
113.587
 20
0.25
 21
5.875
  0
LINE
  8
F
 10
113.234
 11
107.609
 20
5.875
 21
0.25
  0
LINE
  8
F
 10
107.255
 11
112.88
 20
0.25
 21
5.875
  0
LINE
  8
F
 10
112.527
 11
106.902
 20
5.875
 21
0.25
  0
LINE
  8
F
 10
106.548
 11
112.173
 20
0.25
 21
5.875
  0
LINE
  8
F
 10
111.819
 11
106.195
 20
5.875
 21
0.25
  0
LINE
  8
F
 10
105.841
 11
111.466
 20
0.25
 21
5.875
  0
LINE
  8
F
 10
111.112
 11
105.488
 20
5.875
 21
0.25
  0
LINE
  8
F
 10
105.134
 11
110.759
 20
0.25
 21
5.875
  0
LINE
  8
F
 10
110.405
 11
104.78
 20
5.875
 21
0.25
  0
LINE
  8
F
 10
104.427
 11
110.052
 20
0.25
 21
5.875
  0
LINE
  8
F
 10
109.698
 11
104.073
 20
5.875
 21
0.25
  0
LINE
  8
F
 10
103.72
 11
109.345
 20
0.25
 21
5.875
  0
LINE
  8
F
 10
108.991
 11
103.366
 20
5.875
 21
0.25
  0
LINE
  8
F
 10
103.013
 11
108.637
 20
0.25
 21
5.875
  0
LINE
  8
F
 10
108.284
 11
102.659
 20
5.875
 21
0.25
  0
LINE
  8
F
 10
102.306
 11
107.93
 20
0.25
 21
5.875
  0
LINE
  8
F
 10
107.577
 11
101.952
 20
5.875
 21
0.25
  0
LINE
  8
F
 10
101.598
 11
107.223
 20
0.25
 21
5.875
  0
LINE
  8
F
 10
106.87
 11
101.245
 20
5.875
 21
0.25
  0
LINE
  8
F
 10
100.891
 11
106.516
 20
0.25
 21
5.875
  0
LINE
  8
F
 10
106.163
 11
100.538
 20
5.875
 21
0.25
  0
LINE
  8
F
 10
100.184
 11
105.809
 20
0.25
 21
5.875
  0
LINE
  8
F
 10
105.456
 11
99.831
 20
5.875
 21
0.25
  0
LINE
  8
F
 10
99.477
 11
105.102
 20
0.25
 21
5.875
  0
LINE
  8
F
 10
104.748
 11
99.124
 20
5.875
 21
0.25
  0
LINE
  8
F
 10
98.77
 11
104.395
 20
0.25
 21
5.875
  0
LINE
  8
F
 10
104.041
 11
98.416
 20
5.875
 21
0.25
  0
LINE
  8
F
 10
98.063
 11
103.688
 20
0.25
 21
5.875
  0
LINE
  8
F
 10
103.334
 11
97.709
 20
5.875
 21
0.25
  0
LINE
  8
F
 10
97.356
 11
102.981
 20
0.25
 21
5.875
  0
LINE
  8
F
 10
102.627
 11
97.002
 20
5.875
 21
0.25
  0
LINE
  8
F
 10
96.649
 11
102.274
 20
0.25
 21
5.875
  0
LINE
  8
F
 10
101.92
 11
96.295
 20
5.875
 21
0.25
  0
LINE
  8
F
 10
95.942
 11
101.566
 20
0.25
 21
5.875
  0
LINE
  8
F
 10
101.213
 11
95.588
 20
5.875
 21
0.25
  0
LINE
  8
F
 10
95.234
 11
100.859
 20
0.25
 21
5.875
  0
LINE
  8
F
 10
100.506
 11
94.881
 20
5.875
 21
0.25
  0
LINE
  8
F
 10
94.527
 11
100.152
 20
0.25
 21
5.875
  0
LINE
  8
F
 10
99.799
 11
94.174
 20
5.875
 21
0.25
  0
LINE
  8
F
 10
93.82
 11
99.445
 20
0.25
 21
5.875
  0
LINE
  8
F
 10
99.092
 11
93.467
 20
5.875
 21
0.25
  0
LINE
  8
F
 10
93.113
 11
98.738
 20
0.25
 21
5.875
  0
LINE
  8
F
 10
98.384
 11
92.76
 20
5.875
 21
0.25
  0
LINE
  8
F
 10
92.406
 11
98.031
 20
0.25
 21
5.875
  0
LINE
  8
F
 10
97.677
 11
92.052
 20
5.875
 21
0.25
  0
LINE
  8
F
 10
91.699
 11
97.324
 20
0.25
 21
5.875
  0
LINE
  8
F
 10
96.97
 11
91.345
 20
5.875
 21
0.25
  0
LINE
  8
F
 10
90.992
 11
96.617
 20
0.25
 21
5.875
  0
LINE
  8
F
 10
96.263
 11
90.638
 20
5.875
 21
0.25
  0
LINE
  8
F
 10
90.285
 11
95.91
 20
0.25
 21
5.875
  0
LINE
  8
F
 10
95.556
 11
89.931
 20
5.875
 21
0.25
  0
LINE
  8
F
 10
89.578
 11
95.202
 20
0.25
 21
5.875
  0
LINE
  8
F
 10
94.849
 11
89.224
 20
5.875
 21
0.25
  0
LINE
  8
F
 10
88.871
 11
94.495
 20
0.25
 21
5.875
  0
LINE
  8
F
 10
94.142
 11
88.517
 20
5.875
 21
0.25
  0
LINE
  8
F
 10
88.163
 11
93.788
 20
0.25
 21
5.875
  0
LINE
  8
F
 10
93.435
 11
87.81
 20
5.875
 21
0.25
  0
LINE
  8
F
 10
87.456
 11
93.081
 20
0.25
 21
5.875
  0
LINE
  8
F
 10
92.728
 11
87.103
 20
5.875
 21
0.25
  0
LINE
  8
F
 10
86.749
 11
92.374
 20
0.25
 21
5.875
  0
LINE
  8
F
 10
92.02
 11
86.396
 20
5.875
 21
0.25
  0
LINE
  8
F
 10
86.042
 11
91.667
 20
0.25
 21
5.875
  0
LINE
  8
F
 10
91.313
 11
85.689
 20
5.875
 21
0.25
  0
LINE
  8
F
 10
85.335
 11
90.96
 20
0.25
 21
5.875
  0
LINE
  8
F
 10
90.606
 11
84.981
 20
5.875
 21
0.25
  0
LINE
  8
F
 10
84.628
 11
90.253
 20
0.25
 21
5.875
  0
LINE
  8
F
 10
89.899
 11
84.274
 20
5.875
 21
0.25
  0
LINE
  8
F
 10
83.921
 11
89.546
 20
0.25
 21
5.875
  0
LINE
  8
F
 10
89.192
 11
83.567
 20
5.875
 21
0.25
  0
LINE
  8
F
 10
83.214
 11
88.839
 20
0.25
 21
5.875
  0
LINE
  8
F
 10
88.485
 11
82.86
 20
5.875
 21
0.25
  0
LINE
  8
F
 10
82.507
 11
88.131
 20
0.25
 21
5.875
  0
LINE
  8
F
 10
87.778
 11
82.153
 20
5.875
 21
0.25
  0
LINE
  8
F
 10
81.799
 11
87.424
 20
0.25
 21
5.875
  0
LINE
  8
F
 10
87.071
 11
81.446
 20
5.875
 21
0.25
  0
LINE
  8
F
 10
81.092
 11
86.717
 20
0.25
 21
5.875
  0
LINE
  8
F
 10
86.364
 11
80.739
 20
5.875
 21
0.25
  0
LINE
  8
F
 10
80.385
 11
86.01
 20
0.25
 21
5.875
  0
LINE
  8
F
 10
85.657
 11
80.032
 20
5.875
 21
0.25
  0
LINE
  8
F
 10
79.678
 11
85.303
 20
0.25
 21
5.875
  0
LINE
  8
F
 10
84.949
 11
79.325
 20
5.875
 21
0.25
  0
LINE
  8
F
 10
78.971
 11
84.596
 20
0.25
 21
5.875
  0
LINE
  8
F
 10
84.242
 11
78.617
 20
5.875
 21
0.25
  0
LINE
  8
F
 10
78.264
 11
83.889
 20
0.25
 21
5.875
  0
LINE
  8
F
 10
83.535
 11
77.91
 20
5.875
 21
0.25
  0
LINE
  8
F
 10
77.557
 11
83.182
 20
0.25
 21
5.875
  0
LINE
  8
F
 10
82.828
 11
77.203
 20
5.875
 21
0.25
  0
LINE
  8
F
 10
76.85
 11
82.475
 20
0.25
 21
5.875
  0
LINE
  8
F
 10
82.121
 11
76.829
 20
5.875
 21
0.583
  0
LINE
  8
F
 10
76.829
 11
81.767
 20
0.937
 21
5.875
  0
LINE
  8
F
 10
81.414
 11
76.829
 20
5.875
 21
1.29
  0
LINE
  8
F
 10
76.829
 11
81.06
 20
1.644
 21
5.875
  0
LINE
  8
F
 10
80.707
 11
76.829
 20
5.875
 21
1.997
  0
LINE
  8
F
 10
76.829
 11
80.353
 20
2.351
 21
5.875
  0
LINE
  8
F
 10
80.0
 11
76.829
 20
5.875
 21
2.705
  0
LINE
  8
F
 10
76.829
 11
79.646
 20
3.058
 21
5.875
  0
LINE
  8
F
 10
79.293
 11
76.829
 20
5.875
 21
3.412
  0
LINE
  8
F
 10
76.829
 11
78.939
 20
3.765
 21
5.875
  0
LINE
  8
F
 10
78.585
 11
76.829
 20
5.875
 21
4.119
  0
LINE
  8
F
 10
76.829
 11
78.232
 20
4.472
 21
5.875
  0
LINE
  8
F
 10
77.878
 11
76.829
 20
5.875
 21
4.826
  0
LINE
  8
F
 10
76.829
 11
77.525
 20
5.179
 21
5.875
  0
LINE
  8
F
 10
77.171
 11
76.829
 20
5.875
 21
5.533
  0
LINE
  8
F
 10
76.85
 11
77.203
 20
0.604
 21
0.25
  0
LINE
  8
F
 10
77.557
 11
76.85
 20
0.25
 21
0.957
  0
LINE
  8
F
 10
76.85
 11
77.91
 20
1.311
 21
0.25
  0
LINE
  8
F
 10
78.264
 11
76.85
 20
0.25
 21
1.664
  0
LINE
  8
F
 10
76.85
 11
78.617
 20
2.018
 21
0.25
  0
LINE
  8
F
 10
78.971
 11
76.85
 20
0.25
 21
2.371
  0
LINE
  8
F
 10
76.85
 11
79.325
 20
2.725
 21
0.25
  0
LINE
  8
F
 10
79.678
 11
76.85
 20
0.25
 21
3.078
  0
LINE
  8
F
 10
76.85
 11
80.032
 20
3.432
 21
0.25
  0
LINE
  8
F
 10
80.385
 11
76.85
 20
0.25
 21
3.785
  0
LINE
  8
F
 10
76.85
 11
80.739
 20
4.139
 21
0.25
  0
LINE
  8
F
 10
81.092
 11
76.85
 20
0.25
 21
4.493
  0
LINE
  8
F
 10
76.85
 11
81.446
 20
4.846
 21
0.25
  0
LINE
  8
F
 10
81.799
 11
76.85
 20
0.25
 21
5.2
  0
LINE
  8
F
 10
76.85
 11
82.153
 20
5.553
 21
0.25
  0
LINE
  8
F
 10
82.507
 11
76.882
 20
0.25
 21
5.875
  0
LINE
  8
F
 10
77.235
 11
82.86
 20
5.875
 21
0.25
  0
LINE
  8
F
 10
83.214
 11
77.589
 20
0.25
 21
5.875
  0
LINE
  8
F
 10
77.942
 11
83.567
 20
5.875
 21
0.25
  0
LINE
  8
F
 10
83.921
 11
78.296
 20
0.25
 21
5.875
  0
LINE
  8
F
 10
78.649
 11
84.274
 20
5.875
 21
0.25
  0
LINE
  8
F
 10
84.628
 11
79.003
 20
0.25
 21
5.875
  0
LINE
  8
F
 10
79.357
 11
84.981
 20
5.875
 21
0.25
  0
LINE
  8
F
 10
85.335
 11
79.71
 20
0.25
 21
5.875
  0
LINE
  8
F
 10
80.064
 11
85.689
 20
5.875
 21
0.25
  0
LINE
  8
F
 10
86.042
 11
80.417
 20
0.25
 21
5.875
  0
LINE
  8
F
 10
80.771
 11
86.396
 20
5.875
 21
0.25
  0
LINE
  8
F
 10
86.749
 11
81.124
 20
0.25
 21
5.875
  0
LINE
  8
F
 10
81.478
 11
87.103
 20
5.875
 21
0.25
  0
LINE
  8
F
 10
87.456
 11
81.831
 20
0.25
 21
5.875
  0
LINE
  8
F
 10
82.185
 11
87.81
 20
5.875
 21
0.25
  0
LINE
  8
F
 10
88.163
 11
82.539
 20
0.25
 21
5.875
  0
LINE
  8
F
 10
82.892
 11
88.517
 20
5.875
 21
0.25
  0
LINE
  8
F
 10
88.871
 11
83.246
 20
0.25
 21
5.875
  0
LINE
  8
F
 10
83.599
 11
89.224
 20
5.875
 21
0.25
  0
LINE
  8
F
 10
89.578
 11
83.953
 20
0.25
 21
5.875
  0
LINE
  8
F
 10
84.306
 11
89.931
 20
5.875
 21
0.25
  0
LINE
  8
F
 10
90.285
 11
84.66
 20
0.25
 21
5.875
  0
LINE
  8
F
 10
85.013
 11
90.638
 20
5.875
 21
0.25
  0
LINE
  8
F
 10
90.992
 11
85.367
 20
0.25
 21
5.875
  0
LINE
  8
F
 10
85.721
 11
91.345
 20
5.875
 21
0.25
  0
LINE
  8
F
 10
91.699
 11
86.074
 20
0.25
 21
5.875
  0
LINE
  8
F
 10
86.428
 11
92.052
 20
5.875
 21
0.25
  0
LINE
  8
F
 10
92.406
 11
86.781
 20
0.25
 21
5.875
  0
LINE
  8
F
 10
87.135
 11
92.76
 20
5.875
 21
0.25
  0
LINE
  8
F
 10
93.113
 11
87.488
 20
0.25
 21
5.875
  0
LINE
  8
F
 10
87.842
 11
93.467
 20
5.875
 21
0.25
  0
LINE
  8
F
 10
93.82
 11
88.195
 20
0.25
 21
5.875
  0
LINE
  8
F
 10
88.549
 11
94.174
 20
5.875
 21
0.25
  0
LINE
  8
F
 10
94.527
 11
88.903
 20
0.25
 21
5.875
  0
LINE
  8
F
 10
89.256
 11
94.881
 20
5.875
 21
0.25
  0
LINE
  8
F
 10
95.234
 11
89.61
 20
0.25
 21
5.875
  0
LINE
  8
F
 10
89.963
 11
95.588
 20
5.875
 21
0.25
  0
LINE
  8
F
 10
95.942
 11
90.317
 20
0.25
 21
5.875
  0
LINE
  8
F
 10
90.67
 11
96.295
 20
5.875
 21
0.25
  0
LINE
  8
F
 10
96.649
 11
91.024
 20
0.25
 21
5.875
  0
LINE
  8
F
 10
91.377
 11
97.002
 20
5.875
 21
0.25
  0
LINE
  8
F
 10
97.356
 11
91.731
 20
0.25
 21
5.875
  0
LINE
  8
F
 10
92.084
 11
97.709
 20
5.875
 21
0.25
  0
LINE
  8
F
 10
98.063
 11
92.438
 20
0.25
 21
5.875
  0
LINE
  8
F
 10
92.792
 11
98.416
 20
5.875
 21
0.25
  0
LINE
  8
F
 10
98.77
 11
93.145
 20
0.25
 21
5.875
  0
LINE
  8
F
 10
93.499
 11
99.124
 20
5.875
 21
0.25
  0
LINE
  8
F
 10
99.477
 11
93.852
 20
0.25
 21
5.875
  0
LINE
  8
F
 10
94.206
 11
99.831
 20
5.875
 21
0.25
  0
LINE
  8
F
 10
100.184
 11
94.559
 20
0.25
 21
5.875
  0
LINE
  8
F
 10
94.913
 11
100.538
 20
5.875
 21
0.25
  0
LINE
  8
F
 10
100.891
 11
95.266
 20
0.25
 21
5.875
  0
LINE
  8
F
 10
95.62
 11
101.245
 20
5.875
 21
0.25
  0
LINE
  8
F
 10
101.598
 11
95.974
 20
0.25
 21
5.875
  0
LINE
  8
F
 10
96.327
 11
101.952
 20
5.875
 21
0.25
  0
LINE
  8
F
 10
102.306
 11
96.681
 20
0.25
 21
5.875
  0
LINE
  8
F
 10
97.034
 11
102.659
 20
5.875
 21
0.25
  0
LINE
  8
F
 10
103.013
 11
97.388
 20
0.25
 21
5.875
  0
LINE
  8
F
 10
97.741
 11
103.366
 20
5.875
 21
0.25
  0
LINE
  8
F
 10
103.72
 11
98.095
 20
0.25
 21
5.875
  0
LINE
  8
F
 10
98.448
 11
104.073
 20
5.875
 21
0.25
  0
LINE
  8
F
 10
104.427
 11
98.802
 20
0.25
 21
5.875
  0
LINE
  8
F
 10
99.156
 11
104.78
 20
5.875
 21
0.25
  0
LINE
  8
F
 10
105.134
 11
99.509
 20
0.25
 21
5.875
  0
LINE
  8
F
 10
99.863
 11
105.488
 20
5.875
 21
0.25
  0
LINE
  8
F
 10
105.841
 11
100.216
 20
0.25
 21
5.875
  0
LINE
  8
F
 10
100.57
 11
106.195
 20
5.875
 21
0.25
  0
LINE
  8
F
 10
106.548
 11
100.923
 20
0.25
 21
5.875
  0
LINE
  8
F
 10
101.277
 11
106.902
 20
5.875
 21
0.25
  0
LINE
  8
F
 10
107.255
 11
101.63
 20
0.25
 21
5.875
  0
LINE
  8
F
 10
101.984
 11
107.609
 20
5.875
 21
0.25
  0
LINE
  8
F
 10
107.962
 11
102.338
 20
0.25
 21
5.875
  0
LINE
  8
F
 10
102.691
 11
108.316
 20
5.875
 21
0.25
  0
LINE
  8
F
 10
108.669
 11
103.045
 20
0.25
 21
5.875
  0
LINE
  8
F
 10
103.398
 11
109.023
 20
5.875
 21
0.25
  0
LINE
  8
F
 10
109.377
 11
103.752
 20
0.25
 21
5.875
  0
LINE
  8
F
 10
104.105
 11
109.73
 20
5.875
 21
0.25
  0
LINE
  8
F
 10
110.084
 11
104.459
 20
0.25
 21
5.875
  0
LINE
  8
F
 10
104.812
 11
110.437
 20
5.875
 21
0.25
  0
LINE
  8
F
 10
110.791
 11
105.166
 20
0.25
 21
5.875
  0
LINE
  8
F
 10
105.52
 11
111.144
 20
5.875
 21
0.25
  0
LINE
  8
F
 10
111.498
 11
105.873
 20
0.25
 21
5.875
  0
LINE
  8
F
 10
106.227
 11
111.851
 20
5.875
 21
0.25
  0
LINE
  8
F
 10
112.205
 11
106.58
 20
0.25
 21
5.875
  0
LINE
  8
F
 10
106.934
 11
112.559
 20
5.875
 21
0.25
  0
LINE
  8
F
 10
112.912
 11
107.287
 20
0.25
 21
5.875
  0
LINE
  8
F
 10
107.641
 11
113.266
 20
5.875
 21
0.25
  0
LINE
  8
F
 10
113.619
 11
107.994
 20
0.25
 21
5.875
  0
LINE
  8
F
 10
108.348
 11
113.973
 20
5.875
 21
0.25
  0
LINE
  8
F
 10
114.326
 11
108.701
 20
0.25
 21
5.875
  0
LINE
  8
F
 10
109.055
 11
114.68
 20
5.875
 21
0.25
  0
LINE
  8
F
 10
115.033
 11
109.409
 20
0.25
 21
5.875
  0
LINE
  8
F
 10
109.762
 11
115.387
 20
5.875
 21
0.25
  0
LINE
  8
F
 10
115.741
 11
110.116
 20
0.25
 21
5.875
  0
LINE
  8
F
 10
110.469
 11
116.094
 20
5.875
 21
0.25
  0
LINE
  8
F
 10
116.448
 11
110.823
 20
0.25
 21
5.875
  0
LINE
  8
F
 10
111.176
 11
116.801
 20
5.875
 21
0.25
  0
LINE
  8
F
 10
117.155
 11
111.53
 20
0.25
 21
5.875
  0
LINE
  8
F
 10
111.883
 11
117.508
 20
5.875
 21
0.25
  0
LINE
  8
F
 10
117.862
 11
112.237
 20
0.25
 21
5.875
  0
LINE
  8
F
 10
112.591
 11
118.215
 20
5.875
 21
0.25
  0
LINE
  8
F
 10
118.569
 11
112.944
 20
0.25
 21
5.875
  0
LINE
  8
F
 10
113.298
 11
118.923
 20
5.875
 21
0.25
  0
LINE
  8
F
 10
119.276
 11
113.651
 20
0.25
 21
5.875
  0
LINE
  8
F
 10
114.005
 11
119.63
 20
5.875
 21
0.25
  0
LINE
  8
F
 10
119.983
 11
114.358
 20
0.25
 21
5.875
  0
LINE
  8
F
 10
114.712
 11
120.337
 20
5.875
 21
0.25
  0
LINE
  8
F
 10
120.69
 11
115.065
 20
0.25
 21
5.875
  0
LINE
  8
F
 10
115.419
 11
121.044
 20
5.875
 21
0.25
  0
LINE
  8
F
 10
121.397
 11
115.773
 20
0.25
 21
5.875
  0
LINE
  8
F
 10
116.126
 11
121.751
 20
5.875
 21
0.25
  0
LINE
  8
F
 10
122.105
 11
116.48
 20
0.25
 21
5.875
  0
LINE
  8
F
 10
116.833
 11
122.458
 20
5.875
 21
0.25
  0
LINE
  8
F
 10
122.812
 11
117.187
 20
0.25
 21
5.875
  0
LINE
  8
F
 10
117.54
 11
123.165
 20
5.875
 21
0.25
  0
LINE
  8
F
 10
123.519
 11
117.894
 20
0.25
 21
5.875
  0
LINE
  8
F
 10
118.247
 11
123.872
 20
5.875
 21
0.25
  0
LINE
  8
F
 10
124.226
 11
118.601
 20
0.25
 21
5.875
  0
LINE
  8
F
 10
118.955
 11
124.579
 20
5.875
 21
0.25
  0
LINE
  8
F
 10
124.6
 11
119.308
 20
0.583
 21
5.875
  0
LINE
  8
F
 10
119.662
 11
124.6
 20
5.875
 21
0.937
  0
LINE
  8
F
 10
124.6
 11
120.015
 20
1.29
 21
5.875
  0
LINE
  8
F
 10
120.369
 11
124.6
 20
5.875
 21
1.644
  0
LINE
  8
F
 10
124.6
 11
120.722
 20
1.997
 21
5.875
  0
LINE
  8
F
 10
121.076
 11
124.6
 20
5.875
 21
2.351
  0
LINE
  8
F
 10
124.6
 11
121.429
 20
2.705
 21
5.875
  0
LINE
  8
F
 10
121.783
 11
124.6
 20
5.875
 21
3.058
  0
LINE
  8
F
 10
124.6
 11
122.137
 20
3.412
 21
5.875
  0
LINE
  8
F
 10
122.49
 11
124.6
 20
5.875
 21
3.765
  0
LINE
  8
F
 10
124.6
 11
122.844
 20
4.119
 21
5.875
  0
LINE
  8
F
 10
123.197
 11
124.6
 20
5.875
 21
4.472
  0
LINE
  8
F
 10
124.6
 11
123.551
 20
4.826
 21
5.875
  0
LINE
  8
F
 10
123.904
 11
124.6
 20
5.875
 21
5.179
  0
LINE
  8
F
 10
124.6
 11
124.258
 20
5.533
 21
5.875
  0
TEXT
  8
F
 10
62.978
 20
8.562
 30
0.0
 40
1.25
 50
0.0
  1
18.375
  0
TEXT
  8
F
 10
47.674
 20
32.125
 30
0.0
 40
1.25
 50
0.0
  1
65.500
  0
TEXT
  8
F
 10
97.579
 20
71.222
 30
0.0
 40
1.25
 50
0.0
  1
49.750
  0
TEXT
  8
F
 10
97.616
 20
-16.239
 30
0.0
 40
1.25
 50
0.0
  1
49.875
  0
TEXT
  8
F
 10
97.569
 20
-8.915
 30
0.0
 40
1.25
 50
0.0
  1
47.750
  0
TEXT
  8
F
 10
7.649
 20
-5.065
 30
0.0
 40
1.25
 50
0.0
  1
21.000
  0
TEXT
  8
F
 10
5.362
 20
-11.982
 30
0.0
 40
1.25
 50
0.0
  1
25.750
  0
TEXT
  8
F
 10
0.912
 20
21.228
 30
0.0
 40
1.25
 50
0.0
  1
16.500
  0
TEXT
  8
F
 10
22.615
 20
67.16
 30
0.0
 40
1.25
 50
0.0
  1
6.500
  0
ENDSEC
  0
EOF
